The Downfall Of Us All - A Day to Remember
00:00 / 00:00
Tabs and lyrics
Tunning: Drop C (C G C F A D)
Artist: A Day To Remember
Song:The Downfall Of Us All
Tuning: Dropped C (CGCFAD)

Guitar 1 is on top
Guitar 2 is bottom


D|-----------------|----------------|----------------|----------------|
A|-----------------|----------------|----------------|----------------|
F|-----------------|----------------|----------------|----------------|
C|-----------------|----------------|----------------|----------------|
G|-----------------|0-0-0-0-0-0-0-0-|0-0--*--0-0--*--|----0---0---0---|
C|-----------------|0-0-0-0-0-0-0-0-|0-0--*--0-0--*--|----0---0---0---|

D|-----------------|----------------|----------------|----------------|
A|-----------------|----------------|----------------|----------------|
F|-----------------|----------------|----------------|----------------|
C|-----------------|----------------|----------------|----------------|
G|-----------------|0-0-0-0-0-0-0-0-|0-0--*--0-0--*--|----0---0---0---|
C|-----------------|0-0-0-0-0-0-0-0-|0-0--*--0-0--*--|----0---0---0---|

============================================================================

D|----------------|----------------|----------------|----------------|
A|----------------|----------------|----------------|----------------|
F|----------------|----------------|----------------|----------------|
C|----------------|----------------|----------------|----------------|
G|0-0--*--0-0--*--|9-9-9-9-9-9-9-9-|9-9--*--9-9--*--|5-5--*--5-5--*--|
C|0-0--*--0-0--*--|9-9-9-9-9-9-9-9-|9-9--*--9-9--*--|5-5--*--5-5--*--|

D|----------------|----------------|----------------|----------------|
A|----------------|----------------|----------------|----------------|
F|----------------|----------------|----------------|----------------|
C|----------------|----------------|----------------|----------------|
G|0-0--*--0-0--*--|9-9-9-9-9-9-9-9-|9-9--*--9-9--*--|5-5--*--5-5--*--|
C|0-0--*--0-0--*--|9-9-9-9-9-9-9-9-|9-9--*--9-9--*--|5-5--*--5-5--*--|

============================================================================

D|----------------|----------------|----------------|----------------|
A|----------------|----------------|----------------|----------------|
F|----------------|----------------|----------------|----------------|
C|----------------|----------------|----------------|----------------|
G|5-5--*------4---|0-0-0-0-0-0-0-0-|0-0--*--0-0--*--|----0---0---0---|
C|5-5--*--5-7-----|0-0-0-0-0-0-0-0-|0-0--*--0-0--*--|----0---0---0---|

D|----------------|----------------|----------------|----------------|
A|----------------|----------------|----------------|----------------|
F|----------------|----------------|----------------|----------------|
C|----------------|----------------|----------------|----------------|
G|5-5--*------4---|0-0-0-0-0-0-0-0-|0-0--*--0-0--*--|----0---0---0---|
C|5-5--*--5-7-----|0-0-0-0-0-0-0-0-|0-0--*--0-0--*--|----0---0---0---|

============================================================================

D|----------------|----------------|----------------|----------------|
A|----------------|----------------|----------------|----------------|
F|----------------|----------------|----------------|----------------|
C|----------------|----------------|----------------|----------------|
G|0-0--*--0-0--*--|9-9-9-9-9-9-9-9-|9-9--*--9-9--*--|5-5--*--5-5--*--|
C|0-0--*--0-0--*--|9-9-9-9-9-9-9-9-|9-9--*--9-9--*--|5-5--*--5-5--*--|

D|----------------|----------------|----------------|----------------|
A|----------------|----------------|----------------|----------------|
F|----------------|----------------|----------------|----------------|
C|----------------|----------------|----------------|----------------|
G|0-0--*--0-0--*--|9-9-9-9-9-9-9-9-|9-9--*--9-9--*--|5-5--*--5-5--*--|
C|0-0--*--0-0--*--|9-9-9-9-9-9-9-9-|9-9--*--9-9--*--|5-5--*--5-5--*--|

============================================================================

D|----------------|----------------|----------------|----------------|
A|----------------|----------------|----------------|----------------|
F|----------------|7---------------|----------------|----------------|
C|----------------|----------------|----------------|----------------|
G|5-5--*--5-5-5-5-|5---------------|----------------|----------------|
C|5-5--*--5-5-5-5-|----------------|----------------|----------------|

D|----------------|----------------|----------------|----------------|
A|----------------|----------------|----------------|----------------|
F|----------------|----------------|----------------|----------------|
C|----------------|0---------------|----------------|----------------|
G|5-5--*--5-5-5-5-|0---------------|----------------|----------------|
C|5-5--*--5-5-5-5-|0---------------|----------------|----------------|

============================================================================

D|----------------|-----------------|----------------|----------------|
A|----------------|-----------------|----------------|----------------|
F|----------------|11---------------|----------------|7---------------|
C|----------------|-----------------|----------------|----------------|
G|----------------|-9---------------|----------------|5---------------|
C|----------------|-----------------|----------------|----------------|

D|----------------|-----------------|----------------|----------------|
A|----------------|-----------------|----------------|----------------|
F|----------------|-----------------|----------------|----------------|
C|----------------|-9---------------|----------------|5---------------|
G|----------------|-9---------------|----------------|5---------------|
C|----------------|-9---------------|----------------|5---------------|

============================================================================

D|----------------|-----------------|----------------|----------------|
A|----------------|-----------------|----------------|----------------|
F|----------------|11---------------|----------------|----------------|
C|----------------|-----------------|----------------|----------------|
G|----------------|-9---------------|----------------|----------------|
C|----------------|-----------------|----------------|----------------|

D|----------------|-----------------|----------------|----------------|
A|----------------|-----------------|----------------|----------------|
F|----------------|-----------------|----------------|----------------|
C|----------------|-0---------------|----------------|----------------|
G|----------------|-0---------------|----------------|----------------|
C|----------------|-0---------------|----------------|----------------|

============================================================================

D|----------------|-----------------|----------------|----------------|
A|----------------|-----------------|----------------|----------------|
F|----------------|11---------------|----------------|7---------------|
C|----------------|-----------------|----------------|----------------|
G|----------------|-9---------------|----------------|5---------------|
C|----------------|-----------------|----------------|----------------|

D|----------------|-----------------|----------------|----------------|
A|----------------|-----------------|----------------|----------------|
F|----------------|-----------------|----------------|----------------|
C|----------------|-9---------------|----------------|5---------------|
G|----------------|-9---------------|----------------|5---------------|
C|----------------|-9---------------|----------------|5---------------|

============================================================================

Chorus

D|----------------|----------------|----------------|----------------|
A|----------------|----------------|----------------|----------------|
F|----------------|----------------|----------------|----------------|
C|----------------|9---9---9---9---|9---9---9---8---|x---8---8---8---|
G|----------------|9---9---9---9---|9---9---9---9---|x---9---9---9---|
C|----------------|9---9---9---9---|9---9---9---8---|x---8---8---8---|

D|----------------|----------------|----------------|----------------|
A|----------------|----------------|----------------|----------------|
F|----------------|----------------|----------------|----------------|
C|----------------|9---9---9---9---|9---9---9---8---|x---8---8---8---|
G|----------------|9---9---9---9---|9---9---9---9---|x---9---9---9---|
C|----------------|9---9---9---9---|9---9---9---8---|x---8---8---8---|

============================================================================

D|----------------|----------------|----------------|----------------|
A|----------------|----------------|----------------|----------------|
F|----------------|----------------|----------------|----------------|
C|8---8---8---8---|5---5---5---5---|5---5---5---5---|----------------|
G|9---9---9---9---|5---5---5---5---|5---5---5---5---|----------------|
C|8---8---8---8---|5---5---5---5---|5---5---5---5---|0---0---2---4---|

D|----------------|----------------|----------------|----------------|
A|----------------|----------------|----------------|----------------|
F|----------------|----------------|----------------|----------------|
C|8---8---8---8---|5---5---5---5---|5---5---5---5---|----------------|
G|9---9---9---9---|5---5---5---5---|5---5---5---5---|----------------|
C|8---8---8---8---|5---5---5---5---|5---5---5---5---|0---0---2---4---|

============================================================================

D|----------------|----------------|----------------|----------------|
A|----------------|----------------|----------------|----------------|
F|----------------|7---7---7---7---|7---7---7---6---|x---------------|
C|----------------|----------------|----------------|----------------|
G|----------------|5---5---5---5---|5---5---5---4---|x---5---5---5---|
C|2---2---4---0---|----------------|----------------|----5---5---5---|

D|----------------|----------------|----------------|----------------|
A|----------------|----------------|----------------|----------------|
F|----------------|----------------|----------------|----------------|
C|----------------|9---9---9---9---|9---9---9---8---|x---------------|
G|----------------|9---9---9---9---|9---9---9---9---|x---5---5---5---|
C|2---2---4---0---|9---9---9---9---|9---9---9---8---|x---5---5---5---|

============================================================================
From here 2 times
D|----------------|----------------|----------------|----------------|
A|----------------|----------------|----------------|----------------|
F|----------------|----------------|----------------|----------------|
C|----------------|0---0---0---2---|2---0---0---5---|5---0---0---7---|
G|5---5---5---5---|0---0---0---2---|2---0---0---5---|5---0---0---7---|
C|5---5---5---5---|0---0---0---2---|2---0---0---5---|5---0---0---7---|

D|----------------|----------------|----------------|----------------|
A|----------------|----------------|----------------|----------------|
F|----------------|----------------|----------------|----------------|
C|----------------|0---0---0---2---|2---0---0---5---|5---0---0---7---|
G|5---5---5---5---|0---0---0---2---|2---0---0---5---|5---0---0---7---|
C|5---5---5---5---|0---0---0---2---|2---0---0---5---|5---0---0---7---|

============================================================================

D|----------------|----------------|----------------|----------------|
A|----------------|----------------|----------------|----------------|
F|----------------|----------------|----------------|----------------|
C|7---7---7---7---|0---0---0---2---|2---2---2---2---|5---5---5---5---|
G|7---7---7---7---|0---0---0---2---|2---2---2---2---|5---5---5---5---|
C|7---7---7---7---|0---0---0---2---|2---2---2---2---|5---5---5---5---|

D|----------------|----------------|----------------|----------------|
A|----------------|----------------|----------------|----------------|
F|----------------|----------------|----------------|----------------|
C|7---7---7---7---|0---0---0---2---|2---2---2---2---|5---5---5---5---|
G|7---7---7---7---|0---0---0---2---|2---2---2---2---|5---5---5---5---|
C|7---7---7---7---|0---0---0---2---|2---2---2---2---|5---5---5---5---|

============================================================================

D|----------------|----------------|----------------|----------------|
A|----------------|----------------|----------------|----------------|
F|----------------|----------------|----------------|----------------|
C|5---5---5---5---|0---0---0---2---|2---0---0---5---|5---0---0---7---|
G|5---5---5---5---|0---0---0---2---|2---0---0---5---|5---0---0---7---|
C|5---5---5---5---|0---0---0---2---|2---0---0---5---|5---0---0---7---|

D|----------------|
A|----------------|
F|----------------|
C|5---5---5---5---|
G|5---5---5---5---|
C|5---5---5---5---|

============================================================================

End here
D|----------------|----------------|----------------|----------------|
A|----------------|----------------|----------------|----------------|
F|----------------|----------------|----------------|----------------|
C|5---5---5---5---|2---2---2---2---|2---2---2---2---|5---5---*-------|
G|5---5---5---5---|2---2---2---2---|2---2---2---2---|5---5---*-------|
C|5---5---5---5---|2---2---2---2---|2---2---2---2---|5---5---*-------|

D|----------------|----------------|----------------|----------------|
A|----------------|----------------|----------------|----------------|
F|----------------|----------------|----------------|----------------|
C|5---5---5---5---|2---2---2---2---|2---2---2---2---|5---5---*-------|
G|5---5---5---5---|2---2---2---2---|2---2---2---2---|5---5---*-------|
C|5---5---5---5---|2---2---2---2---|2---2---2---2---|5---5---*-------|

============================================================================

Play Intro Again

============================================================================

D|----------------|----------------|----------------|----------------|
A|----------------|----------------|----------------|----------------|
F|----------------|----------------|----------------|----------------|
C|----------------|----------------|----------------|----------------|
G|----------------|0-0-0---*-------|----------------|0-0-0---*-------|
C|----------------|0-0-0---*-------|----------------|0-0-0---*-------|

D|----------------|----------------|----------------|----------------|
A|----------------|----------------|----------------|----------------|
F|----------------|----------------|----------------|----------------|
C|----------------|----------------|----------------|----------------|
G|----------------|0-0-0---*-------|----------------|0-0-0---*-------|
C|----------------|0-0-0---*-------|----------------|0-0-0---*-------|

============================================================================

D|----------------|----------------|----------------|----------------|
A|----------------|----------------|----------------|----------------|
F|----------------|----------------|----------------|----------------|
C|----------------|----------------|----------------|----------------|
G|----------------|9-9-9---*-------|9-9-9---*-------|5-5-5---*-------|
C|----------------|9-9-9---*-------|9-9-9---*-------|5-5-5---*-------|

D|----------------|----------------|----------------|----------------|
A|----------------|----------------|----------------|----------------|
F|----------------|----------------|----------------|----------------|
C|----------------|----------------|----------------|----------------|
G|----------------|9-9-9---*-------|9-9-9---*-------|5-5-5---*-------|
C|----------------|9-9-9---*-------|9-9-9---*-------|5-5-5---*-------|

============================================================================

D|------------------------|
A|------------------------|
F|------------------------|
C|------------------------|
G|5-5-5---*---------------|
C|5-5-5---*---------------|

D|------------------------|
A|------------------------|
F|------------------------|
C|--------5---------------|
G|5-5-5---5---------------|
C|5-5-5---5---------------|

============================================================================
Play Chorus Again
============================================================================

D|----------------|----------------|
A|----------------|----------------|
F|----------------|----------------|
C|0---0---0---0---|0---5---4-------|
G|0---0---0---0---|0---------------|
C|0---0---0---0---|0---------------|

D|----------------|----------------|
A|----------------|----------------|
F|----------------|----------------|
C|0---0---0---0---|0---------------|
G|0---0---0---0---|0---7---9-------|
C|0---0---0---0---|0---------------|

============================================================================

D|----------------|----------------|----------------|----------------|
A|----------------|----------------|----------------|----------------|
F|----------------|----------------|----------------|----------------|
C|----0---0---0---|0---5---4-------|5---5---5---5---|5---5---4-------|
G|----0---0---0---|0---------------|5---5---5---5---|5---------------|
C|----0---0---0---|0---------------|5---5---5---5---|5---------------|

D|----------------|----------------|----------------|----------------|
A|----------------|----------------|----------------|----------------|
F|----------------|----------------|----------------|----------------|
C|----0---0---0---|0---------------|5---5---5---5---|5---------------|
G|----0---0---0---|0---7---9-------|5---5---5---5---|5---7---9-------|
C|----0---0---0---|0---------------|5---5---5---5---|5---------------|

============================================================================

D|----------------|----------------|----------------|----------------|
A|----------------|----------------|----------------|----------------|
F|----------------|----------------|----------------|----------------|
C|----7---7---7---|7---5---5---7---|0---0---0---0---|0---5---4-------|
G|----7---7---7---|7---------------|0---0---0---0---|0---------------|
C|----7---7---7---|7---------------|0---0---0---0---|0---------------|

D|----------------|----------------|----------------|----------------|
A|----------------|----------------|----------------|----------------|
F|----------------|----------------|----------------|----------------|
C|----7---7---7---|7---------------|0---0---0---0---|0---------------|
G|----7---7---7---|7---7---7---9---|0---0---0---0---|0---7---9-------|
C|----7---7---7---|7---------------|0---0---0---0---|0---------------|

============================================================================

D|----------------|----------------|----------------|----------------|
A|----------------|----------------|----------------|----------------|
F|----------------|----------------|----------------|----------------|
C|----0---0---0---|0---5---4-------|5---5---5---5---|5---5---4-------|
G|----0---0---0---|0---------------|5---5---5---5---|5---------------|
C|----0---0---0---|0---------------|5---5---5---5---|5---------------|

D|----------------|----------------|----------------|----------------|
A|----------------|----------------|----------------|----------------|
F|----------------|----------------|----------------|----------------|
C|----0---0---0---|0---------------|5---5---5---5---|5---------------|
G|----0---0---0---|0---7---9-------|5---5---5---5---|5---7---9-------|
C|----0---0---0---|0---------------|5---5---5---5---|5---------------|

============================================================================

D|----------------|----------------|----------------|----------------|
A|----------------|----------------|----------------|----------------|
F|----------------|----------------|----------------|----------------|
C|----7---7---7---|7---5---5---7---|----------------|----5---4-------|
G|----7---7---7---|7---------------|0-0-0-0-0-0-0-0-|0---------------|
C|----7---7---7---|7---------------|0-0-0-0-0-0-0-0-|0---------------|

D|----------------|----------------|----------------|----------------|
A|----------------|----------------|----------------|----------------|
F|----------------|----------------|----------------|----------------|
C|----7---7---7---|7---------------|----------------|----------------|
G|----7---7---7---|7---7---7---9---|0-0-0-0-0-0-0-0-|0---7---9-------|
C|----7---7---7---|7---------------|0-0-0-0-0-0-0-0-|0---------------|

============================================================================

D|----------------|----------------|----------------|----------------|
A|----------------|----------------|----------------|----------------|
F|----------------|----------------|----------------|----------------|
C|----------------|----5---4-------|----------------|----5---4-------|
G|----0-0-0-0-0-0-|0---------------|5-5-5-5-5-5-5-5-|5---------------|
C|----0-0-0-0-0-0-|0---------------|5-5-5-5-5-5-5-5-|5---------------|

D|----------------|----------------|----------------|----------------|
A|----------------|----------------|----------------|----------------|
F|----------------|----------------|----------------|----------------|
C|----------------|----------------|----------------|----------------|
G|----0-0-0-0-0-0-|0---7---9-------|5-5-5-5-5-5-5-5-|5---7---9-------|
C|----0-0-0-0-0-0-|0---------------|5-5-5-5-5-5-5-5-|5---------------|

============================================================================

D|----------------|----------------|----------------|----------------|
A|----------------|----------------|----------------|----------------|
F|----------------|----------------|----------------|----------------|
C|----------------|----------------|----------------|----5---4-------|
G|7-7--*--7-7--*--|----7---7-7--*--|0-0-0-0-0-0-0-0-|0---------------|
C|7-7--*--7-7--*--|----7---7-7--*--|0-0-0-0-0-0-0-0-|0---------------|

D|----------------|----------------|----------------|----------------|
A|----------------|----------------|----------------|----------------|
F|----------------|----------------|----------------|----------------|
C|----------------|----------------|----------------|----------------|
G|7-7--*--7-7--*--|----7---7-7--*--|0-0-0-0-0-0-0-0-|0---7---9-------|
C|7-7--*--7-7--*--|----7---7-7--*--|0-0-0-0-0-0-0-0-|0---------------|

============================================================================

D|----------------|----------------|----------------|----------------|
A|----------------|----------------|----------------|----------------|
F|----------------|----------------|----------------|----------------|
C|----------------|----5---4-------|----------------|----5---4-------|
G|----0-0-0-0-0-0-|0---------------|5-5-5-5-5-5-5-5-|5---------------|
C|----0-0-0-0-0-0-|0---------------|5-5-5-5-5-5-5-5-|5---------------|

D|----------------|----------------|----------------|----------------|
A|----------------|----------------|----------------|----------------|
F|----------------|----------------|----------------|----------------|
C|----------------|----------------|----------------|----------------|
G|----0-0-0-0-0-0-|0---7---9-------|5-5-5-5-5-5-5-5-|5---7---9-------|
C|----0-0-0-0-0-0-|0---------------|5-5-5-5-5-5-5-5-|5---------------|

============================================================================

D|----------------|----------------|----------------|----------------|
A|----------------|----------------|----------------|----------------|
F|----------------|----------------|----------------|----------------|
C|----------------|----------------|----------------|----------------|
G|7-7--*--7-7--*--|----7---7-7--*--|----------------|----------------|
C|7-7--*--7-7--*--|----7---7-7--*--|----------------|----------------|

D|----------------|----------------|----------------|----------------|
A|----------------|----------------|----------------|----------------|
F|----------------|----------------|----------------|----------------|
C|----------------|----------------|----------------|----------------|
G|7-7--*--7-7--*--|----7---7-7--*--|----------------|----------------|
C|7-7--*--7-7--*--|----7---7-7--*--|0---0---0---2---|2---0---0---5---|

============================================================================

D|----------------|----------------|----------------|----------------|
A|----------------|----------------|----------------|----------------|
F|----------------|----------------|----------------|----------------|
C|----------------|----------------|----------------|----------------|
G|----------------|----------------|----------------|----------------|
C|----------------|----------------|----------------|----------------|

D|----------------|----------------|----------------|----------------|
A|----------------|----------------|----------------|----------------|
F|----------------|----------------|----------------|----------------|
C|----------------|----------------|----------------|----------------|
G|----------------|----------------|----------------|----------------|
C|5---0---0---7---|7---7---7---7---|0---0---0---2---|2---2---2---2---|

============================================================================

D|----------------|----------------|
A|----------------|----------------|
F|----------------|----------------|
C|----------------|----------------|
G|----------------|----------------|
C|----------------|----------------|

D|----------------|----------------|
A|----------------|----------------|
F|----------------|----------------|
C|----------------|----------------|
G|----------------|----------------|
C|5---5---5---5---|5---5---5---5---|

============================================================================
Play Chorus Again
============================================================================


[Outro]

D|----------------|----------------|----------------|----------------|
A|----------------|----------------|----------------|----------------|
F|----------------|----------------|----------------|----------------|
C|5---------------|----------------|----------------|----------------|
G|5---------------|----------------|0-0-0-0-0-0-0-0-|0-0--*--0-0--*--|
C|5---------------|----------------|0-0-0-0-0-0-0-0-|0-0--*--0-0--*--|

D|----------------|----------------|----------------|----------------|
A|----------------|----------------|----------------|----------------|
F|----------------|----------------|----------------|----------------|
C|5---------------|----------------|----------------|----------------|
G|5---------------|----------------|0-0-0-0-0-0-0-0-|0-0--*--0-0--*--|
C|5---------------|----------------|0-0-0-0-0-0-0-0-|0-0--*--0-0--*--|

============================================================================

D|----------------|----------------|----------------|----------------|
A|----------------|----------------|----------------|----------------|
F|----------------|----------------|----------------|----------------|
C|----------------|----------------|----------------|----------------|
G|----0---0---0---|0-0--*--0-0--*--|0-0-0-0-0-0-0-0-|0-0--*--0-0--*--|
C|----0---0---0---|0-0--*--0-0--*--|0-0-0-0-0-0-0-0-|0-0--*--0-0--*--|

D|----------------|----------------|----------------|----------------|
A|----------------|----------------|----------------|----------------|
F|----------------|----------------|----------------|----------------|
C|----------------|----------------|----------------|----------------|
G|----0---0---0---|0-0--*--0-0--*--|0-0-0-0-0-0-0-0-|0-0--*--0-0--*--|
C|----0---0---0---|0-0--*--0-0--*--|0-0-0-0-0-0-0-0-|0-0--*--0-0--*--|

============================================================================

D|----------------|----------------|----------------|----------------|
A|----------------|----------------|----------------|----------------|
F|----------------|----------------|----------------|----------------|
C|----------------|----------------|----------------|----------------|
G|0-0--*--0-0--*--|0---0-0---0-0---|0-0-0-0-0-0-0-0-|0-0--*--0-0--*--|
C|0-0--*--0-0--*--|0---0-0---0-0---|0-0-0-0-0-0-0-0-|0-0--*--0-0--*--|

D|----------------|----------------|----------------|----------------|
A|----------------|----------------|----------------|----------------|
F|----------------|----------------|----------------|----------------|
C|----------------|----------------|----------------|----------------|
G|0-0--*--0-0--*--|0---0-0---0-0---|0-0-0-0-0-0-0-0-|0-0--*--0-0--*--|
C|0-0--*--0-0--*--|0---0-0---0-0---|0-0-0-0-0-0-0-0-|0-0--*--0-0--*--|

============================================================================

D|----------------|----------------|----------------|----------------|
A|----------------|----------------|----------------|----------------|
F|----------------|----------------|----------------|----------------|
C|----------------|----------------|----------------|----------------|
G|----0---0---0---|0-0--*--0-0--*--|0-0-0-0-0-0-0-0-|0-0--*--0-0--*--|
C|----0---0---0---|0-0--*--0-0--*--|0-0-0-0-0-0-0-0-|0-0--*--0-0--*--|

D|----------------|----------------|----------------|----------------|
A|----------------|----------------|----------------|----------------|
F|----------------|----------------|----------------|----------------|
C|----------------|----------------|----------------|----------------|
G|----0---0---0---|0-0--*--0-0--*--|0-0-0-0-0-0-0-0-|0-0--*--0-0--*--|
C|----0---0---0---|0-0--*--0-0--*--|0-0-0-0-0-0-0-0-|0-0--*--0-0--*--|

============================================================================

D|----------------|----------------|----------------|
A|----------------|----------------|----------------|
F|----------------|----------------|----------------|
C|----------------|----------------|----------------|
G|0-0--*--0-0--*--|0---0-0---0-0---|*---------------|
C|0-0--*--0-0--*--|0---0-0---0-0---|*---------------|

D|----------------|----------------|----------------|
A|----------------|----------------|----------------|
F|----------------|----------------|----------------|
C|----------------|----------------|----------------|
G|0-0--*--0-0--*--|0---0-0---0-0---|*---------------|
C|0-0--*--0-0--*--|0---0-0---0-0---|*---------------|
Tunning: Drop C (C G C F A D)
First tab, please rate

Drop C

Thanks to The Poison7337 for the intro and first verse
thanks to YeahRightMilk for the second verse

Intro

(:07-:21)
D|---------------------------------------------------------------------|
A|---------------------------------------------------------------------|
F|---------------------------------------------------------------------|
C|-00000000-00-00--0-0-0--00-00--99999999-99-99--55-55-55--------------|
G|-00000000-00-00--0-0-0--00-00--99999999-99-99--55-55-55----4---------|
C|-00000000-00-00--0-0-0--00-00--99999999-99-99--55-55-55-5h7----------|
........ .. .. . . . .. .. ........ .. .. .. .. ..


D|---------------------------------------------------------------------|
A|---------------------------------------------------------------------|
F|---------------------------------------------------------------------|
C|-00000000-00-00--0-0-0--00-00--99999999-99-99--55-55-55--5555--------|
G|-00000000-00-00--0-0-0--00-00--99999999-99-99--55-55-55--5555--------|
C|-00000000-00-00--0-0-0--00-00--99999999-99-99--55-55-55--5555--------|
........ .. .. . . . .. .. ........ .. .. .. .. .. ....

Verse

()= optional, don't put a lot of emphasis on them if you use them.
(:21-:36)
D|-----------------------|
A|-(3)--(12)---(8)-------|
F|-(2)--(12)---(7)-------| x2
C|--0----9------5--------|
G|--0----9------5--------|
C|--0----9------5--------|

Prechorus
(:37-:48)
D|----------------------------------------|
A|----------------------------------------|
F|----------------------------------------|
C|-9-----5-----0-----2-----9-----5--------|
G|-9-x8--5-x6--0-x14-2-x2--9-x8--5-x6-----|
C|-9-----5-----0-----2-----9-----5--------|
.

Chorus
(:48-1:05)
D|------------------------------------|
A|------------------------------------|
F|------------------------------------| x3
C|-0-0-0-2-0-0-0-5-0-0-7-7-7-7-7-7----|
G|-0-0-0-2-0-0-0-5-0-0-7-7-7-7-7-7----|
C|-0 0-0-2-0-0-0-5-0-0-7-7-7-7-7-7----|

D|----------------------------|
A|----------------------------|
F|----------------------------|
C|-2----5---------------------|
G|-2-x8-5-x2------------------|
C|-2----5-------------~-------|

Intro (1:07-1:21)

pickslide into the verse

Verse 2
(1:22-1:27)
D|-----------------------|
A|-(3)--(12)---(8)-------|
F|-(2)--(12)---(7)-------|
C|--0----9------5--------|
G|--0----9------5--------|
C|--0----9------5--------|
(1:28-1:35)
D|--------------------------------------------------------------------|
A|--------------------------------------------------------------------|
F|--------------------------------------------------------------------|
C|-------4h5-----4h5-----7h4-----4h5-----4h5-----4h5-----2h4-----4h5--|
G|--------------------------------------------------------------------|
C|---0-0-----------------------------0-0------------------------------|

D|--------------------------------------------------------------------|
A|--------------------------------------------------------------------|
F|--------------------------------------------------------------------|
C|-------4h5-----4h5-----7h4-----4h5-----4h5-----4h5-----2h4-----4h5--|
G|--------------------------------------------------------------------|
C|---9-9-------------9-9--------------5-5------------5-5--------------|

Prechorus
(1:36-1:46)
D|----------------------------------------|
A|----------------------------------------|
F|----------------------------------------|
C|-9-----5-----0-----2-----9-----5--------|
G|-9-x8--5-x6--0-x14-2-x2--9-x8--5--------|
C|-9-----5-----0-----2-----9-----5--------|

Chorus (1:47-2:04)

Breakdown not too sure about this
| | |
(2:05-2:35) v v v
D|-----------------------------------------------------------|
A|-----------------------------------------------------------|
F|-------12-11-------12-11--------12-11-----7-6-7------------| x2
C|-0------x-x---0-----x-x---5------x-x---7--x-x-x------------|
G|-0-x4--10/9---0-x4-10/9---5-x4--10/9---7--5/4/5------------|
C|-0------------0-----------5------------7-------------------|

D|-----------------------------------------------------------|
A|-----------------------------------------------------------|
F|-------12-11-------12-11--------12-11----------------------| x2
C|-0------x-x---0-----x-x---5------x-x---7-7-7-7---7-7-7-----|
G|-0-x4--10/9---0-x4-10/9---5-x4--10/9---7-7-7-7---7-7-7-----|
C|-0------------0-----------5------------7-7-7-7---7-7-7-----|
. . . . . . . . . .


Bridge
2:36-2:42)
D|----------------------------------------|
A|----------------------------------------|
F|----------------------------------------| x2
C|----------------------------------------|
G|----------------------------------------|
C|-0 0-0-2-0-0-0-5-0-0-7-7-7-7-7-7--------|

Chorus
(2:43-3:04)
D|-------------------------------------|
A|-------------------------------------|
F|-------------------------------------|
C|-0-0-0-2-0-0-0-5-0-0-7-7-7-7-7-7-----|
G|-0-0-0-2-0-0-0-5-0-0-7-7-7-7-7-7-----|
C|-0 0-0-2-0-0-0-5-0-0-7-7-7-7-7-7-----|
(3:05-3:10)
D|----------------------------|
A|----------------------------|
F|----------------------------|
C|-2----5------2-----5~-------|
G|-2-x8-5-x8---2-x8--5~-------|
C|-2----5------2-----5~-------|

Intro(3:11-3:27)


D|---------------------------------------------------------------------|
A|---------------------------------------------------------------------|
F|---------------------------------------------------------------------|
C|-00000000-00-00--0-0-0--00-00--99999999-99-99--55-55-55--------------|
G|-00000000-00-00--0-0-0--00-00--99999999-99-99--55-55-55--------------|
C|-00000000-00-00--0-0-0--00-00--99999999-99-99--55-55-55--------------|
........ .. .. . . . .. .. ........ .. .. .. .. ..


D|---------------------------------------------------------------------|
A|---------------------------------------------------------------------|
F|---------------------------------------------------------------------|
C|-00000000-00-00--0-0-0--00-00--99999999-99-99--55-55-55--5555--------|
G|-00000000-00-00--0-0-0--00-00--99999999-99-99--55-55-55--5555--------|
C|-00000000-00-00--0-0-0--00-00--99999999-99-99--55-55-55--5555--------|
........ .. .. . . . .. .. ........ .. .. .. .. .. ....
Tunning: Drop C (C G C F A D)
My shot at "The Downfall Of Us All." Enjoy.

A Day To Remember- Downfall Of Us All

Tuning: C, G, C, F, A, D

Intro:

S S S S S S S S S S E S S E E E E E S S E S S E
|D|--------------------------------|--------------------------------|
|A|--------------------R-------R---|R-------------------R-------R---|
|F|--------------------E-------E---|E-------------------E-------E---|
|C|--------------------S-------S---|S-------------------S-------S---|
|G|0-0-0-0-0-0-0-0-0-0-T---0-0-T---|T---0---0---0---0-0-T---0-0-T---|
|C|0-0-0-0-0-0-0-0-0-0-----0-0-----|----0---0---0---0-0-----0-0-----|
* * * * * * * * * * * * * * * * * * *
1 e + a 2 e + a 3 e + a 4 e + a 1 e + a 2 e + a 3 e + a 4 e + a


S S S S S S S S S S E S S E S S E S S E S S E S S E
|D|--------------------------------|--------------------------------|
|A|--------------------R-------R---|----R-------R-------R-----------|
|F|--------------------E-------E---|----E-------E-------E-----h-----|
|C|--------------------S-------S---|----S-------S-------S---/---\---|
|G|9-9-9-9-9-9-9-9-9-9-T---9-9-T---|5-5-T---5-5-T---5-5-T---0-2-4---|
|C|9-9-9-9-9-9-9-9-9-9-----9-9-----|5-5-----5-5-----5-5-------------|
* * * * * * * * * * * * * * * * * *
1 e + a 2 e + a 3 e + a 4 e + a 1 e + a 2 e + a 3 e + a 4 e + a


S S S S S S S S S S E S S E E E E E S S E S S E
|D|--------------------------------|--------------------------------|
|A|--------------------R-------R---|R-------------------R-------R---|
|F|--------------------E-------E---|E-------------------E-------E---|
|C|--------------------S-------S---|S-------------------S-------S---|
|G|0-0-0-0-0-0-0-0-0-0-T---0-0-T---|T---0---0---0---0-0-T---0-0-T---|
|C|0-0-0-0-0-0-0-0-0-0-----0-0-----|----0---0---0---0-0-----0-0-----|
* * * * * * * * * * * * * * * * * * *
1 e + a 2 e + a 3 e + a 4 e + a 1 e + a 2 e + a 3 e + a 4 e + a


S S S S S S S S S S E S S E S S E S S E S S E S S S S
|D|--------------------------------|--------------------------------|
|A|--------------------R-------R---|----R-------R-------R-----------|
|F|--------------------E-------E---|----E-------E-------E-----------|
|C|--------------------S-------S---|----S-------S-------S-----------|
|G|9-9-9-9-9-9-9-9-9-9-T---9-9-T---|5-5-T---5-5-T---5-5-T---5-5-5-5-|
|C|9-9-9-9-9-9-9-9-9-9-----9-9-----|5-5-----5-5-----5-5-----5-5-5-5-|
* * * * * * * * * * * * * * * * * * * * * *
1 e + a 2 e + a 3 e + a 4 e + a 1 e + a 2 e + a 3 e + a 4 e + a


Verse:

W + W
|D|--------------------------------|--------------------------------|
|A|--------------------------------|--------------------------------|
|F|--------------------------------|--------------------------------|
|C|0-------------------------------|(0)-----------------------------|
|G|0-------------------------------|(0)-----------------------------|
|C|0-------------------------------|(0)-----------------------------|

1 e + a 2 e + a 3 e + a 4 e + a 1 e + a 2 e + a 3 e + a 4 e + a


W W
|D|--------------------------------|--------------------------------|
|A|--------------------------------|--------------------------------|
|F|--------------------------------|--------------------------------|
|C|4-------------------------------|5-------------------------------|
|G|2-------------------------------|5-------------------------------|
|C|--------------------------------|5-------------------------------|

1 e + a 2 e + a 3 e + a 4 e + a 1 e + a 2 e + a 3 e + a 4 e + a


W + W
|D|--------------------------------|--------------------------------|
|A|--------------------------------|--------------------------------|
|F|--------------------------------|--------------------------------|
|C|0-------------------------------|(0)-----------------------------|
|G|0-------------------------------|(0)-----------------------------|
|C|0-------------------------------|(0)-----------------------------|

1 e + a 2 e + a 3 e + a 4 e + a 1 e + a 2 e + a 3 e + a 4 e + a


W W
|D|--------------------------------|--------------------------------|
|A|--------------------------------|--------------------------------|
|F|--------------------------------|--------------------------------|
|C|4-------------------------------|5-------------------------------|
|G|2-------------------------------|5-------------------------------|
|C|--------------------------------|5-------------------------------|

1 e + a 2 e + a 3 e + a 4 e + a 1 e + a 2 e + a 3 e + a 4 e + a


Bridge:

E E E E E E E E E. E E E E E E E
|D|--------------------------------|--------------------------------|
|A|------------------------------R-|--------------------------------|
|F|------------------------------E-|--------------------------------|
|C|4---4---4---4---4---4---4---4-S-|----4---4---4---4---4---4---4---|
|G|2---2---2---2---2---2---2---1-T-|----1---1---1---1---1---1---1---|
|C|--------------------------------|--------------------------------|

1 e + a 2 e + a 3 e + a 4 e + a 1 e + a 2 e + a 3 e + a 4 e + a


E E E E E E E E E E E E E E E E
|D|--------------------------------|--------------------------------|
|A|--------------------------------|--------------------------------|
|F|--------------------------------|--------------------------------|
|C|5---5---5---5---5---5---5---5---|--------------------------------|
|G|5---5---5---5---5---5---5---5---|--------------------------------|
|C|5---5---5---5---5---5---5---5---|0---0---2---4---2---2---0---0---|

1 e + a 2 e + a 3 e + a 4 e + a 1 e + a 2 e + a 3 e + a 4 e + a


E E E E E E E E E. E E E E S S E E
|D|--------------------------------|--------------------------------|
|A|------------------------------R-|--------------------------h-----|
|F|------------------------------E-|------------------------/---\---|
|C|0---0---0---0---0---0---0---0-S-|----5---5---5---5-------0---2---|
|G|2---2---2---2---2---2---2---1-T-|----5---5---5---5-------0---2---|
|C|--------------------------------|----5---5---5---5---0-0-0---2---|
* * * * * *
1 e + a 2 e + a 3 e + a 4 e + a 1 e + a 2 e + a 3 e + a 4 e + a


Chorus:

E E E E E E E E E E E E E E E E
|D|--------------------------------|--------------------------------|
|A|--------------------------------|--------------------------------|
|F|--------------------------------|--------------------------------|
|C|0---0---0---2---2---0---0---5---|5---0---0---7---7---7---7---7---|
|G|0---0---0---2---2---0---0---5---|5---0---0---7---7---7---7---7---|
|C|0---0---0---2---2---0---0---5---|5---0---0---7---7---7---7---7---|

1 e + a 2 e + a 3 e + a 4 e + a 1 e + a 2 e + a 3 e + a 4 e + a


E E E E E E E E E E E E E E E E
|D|--------------------------------|--------------------------------|
|A|--------------------------------|--------------------------------|
|F|--------------------------------|--------------------------------|
|C|0---0---0---2---2---2---2---5---|5---5---5---5---5---5---5---5---|
|G|0---0---0---2---2---2---2---5---|5---5---5---5---5---5---5---5---|
|C|0---0---0---2---2---2---2---5---|5---5---5---5---5---5---5---5---|

1 e + a 2 e + a 3 e + a 4 e + a 1 e + a 2 e + a 3 e + a 4 e + a


E E E E E E E E E E E E E E E E
|D|--------------------------------|--------------------------------|
|A|--------------------------------|--------------------------------|
|F|--------------------------------|--------------------------------|
|C|0---0---0---2---2---0---0---5---|5---0---0---7---7---7---7---7---|
|G|0---0---0---2---2---0---0---5---|5---0---0---7---7---7---7---7---|
|C|0---0---0---2---2---0---0---5---|5---0---0---7---7---7---7---7---|

1 e + a 2 e + a 3 e + a 4 e + a 1 e + a 2 e + a 3 e + a 4 e + a


E E E E E E E E E E E E E E E E
|D|--------------------------------|--------------------------------|
|A|--------------------------------|--------------------------------|
|F|--------------------------------|--------------------------------|
|C|0---0---0---2---2---2---2---5---|5---5---5---5---5---5---5---5---|
|G|0---0---0---2---2---2---2---5---|5---5---5---5---5---5---5---5---|
|C|0---0---0---2---2---2---2---5---|5---5---5---5---5---5---5---5---|

1 e + a 2 e + a 3 e + a 4 e + a 1 e + a 2 e + a 3 e + a 4 e + a


E E E E E E E E E E H.
|D|--------------------------------|--------------------------------|
|A|--------------------------------|--------R-----------------------|
|F|--------------------------------|--------E-----------------------|
|C|2---2---2---2---2---2---2---2---|5---5---S-----------------------|
|G|2---2---2---2---2---2---2---2---|5---5---T-----------------------|
|C|2---2---2---2---2---2---2---2---|5---5---------------------------|

1 e + a 2 e + a 3 e + a 4 e + a 1 e + a 2 e + a 3 e + a 4 e + a


Intro Riff:

S S S S S S S S S S E S S E E E E E S S E S S E
|D|--------------------------------|--------------------------------|
|A|--------------------R-------R---|R-------------------R-------R---|
|F|--------------------E-------E---|E-------------------E-------E---|
|C|--------------------S-------S---|S-------------------S-------S---|
|G|0-0-0-0-0-0-0-0-0-0-T---0-0-T---|T---0---0---0---0-0-T---0-0-T---|
|C|0-0-0-0-0-0-0-0-0-0-----0-0-----|----0---0---0---0-0-----0-0-----|
* * * * * * * * * * * * * * * * * * *
1 e + a 2 e + a 3 e + a 4 e + a 1 e + a 2 e + a 3 e + a 4 e + a


S S S S S S S S S S E S S E S S E S S E S S E S S E
|D|--------------------------------|--------------------------------|
|A|--------------------R-------R---|----R-------R-------R-----------|
|F|--------------------E-------E---|----E-------E-------E-----h-----|
|C|--------------------S-------S---|----S-------S-------S---/---\---|
|G|9-9-9-9-9-9-9-9-9-9-T---9-9-T---|5-5-T---5-5-T---5-5-T---0-2-4---|
|C|9-9-9-9-9-9-9-9-9-9-----9-9-----|5-5-----5-5-----5-5-------------|
* * * * * * * * * * * * * * * * * *
1 e + a 2 e + a 3 e + a 4 e + a 1 e + a 2 e + a 3 e + a 4 e + a


S S S S S S S S S S E S S E E E E E S S E S S E
|D|--------------------------------|--------------------------------|
|A|--------------------R-------R---|R-------------------R-------R---|
|F|--------------------E-------E---|E-------------------E-------E---|
|C|--------------------S-------S---|S-------------------S-------S---|
|G|0-0-0-0-0-0-0-0-0-0-T---0-0-T---|T---0---0---0---0-0-T---0-0-T---|
|C|0-0-0-0-0-0-0-0-0-0-----0-0-----|----0---0---0---0-0-----0-0-----|
* * * * * * * * * * * * * * * * * * *
1 e + a 2 e + a 3 e + a 4 e + a 1 e + a 2 e + a 3 e + a 4 e + a


S S S S S S S S S S E S S E S S E S S E H
|D|--------------------------------|--------------------------------|
|A|--------------------R-------R---|----R-------R-------------------|
|F|--------------------E-------E---|----E-------E-------------------|
|C|--------------------S-------S---|----S-------S-------------------|
|G|9-9-9-9-9-9-9-9-9-9-T---9-9-T---|5-5-T---5-5-T-------------------|
|C|9-9-9-9-9-9-9-9-9-9-----9-9-----|5-5-----5-5-----(PICKSCRAPE)----|
* * * * * * * * * * * * * * * *
1 e + a 2 e + a 3 e + a 4 e + a 1 e + a 2 e + a 3 e + a 4 e + a


Verse:

W + W
|D|--------------------------------|--------------------------------|
|A|--------------------------------|--------------------------------|
|F|--------------------------------|--------------------------------|
|C|0-------------------------------|(0)-----------------------------|
|G|0-------------------------------|(0)-----------------------------|
|C|0-------------------------------|(0)-----------------------------|

1 e + a 2 e + a 3 e + a 4 e + a 1 e + a 2 e + a 3 e + a 4 e + a


W W
|D|--------------------------------|--------------------------------|
|A|--------------------------------|--------------------------------|
|F|--------------------------------|--------------------------------|
|C|4-------------------------------|5-------------------------------|
|G|2-------------------------------|5-------------------------------|
|C|--------------------------------|5-------------------------------|

1 e + a 2 e + a 3 e + a 4 e + a 1 e + a 2 e + a 3 e + a 4 e + a


S S S S S S S S S S S S S S S S
|D|----------------------------------------------------------------|
|A|----------------------------------------------------------------|
|F|----------h---------------h---------------h---------------h-----|
|C|--------/---\-----------/---\-----------/---\-----------/---\---|
|G|--------10--9-----------7---9-----------12--9-----------10--9---|
|C|0---0-----------0---0-----------0---0-----------0---0-----------|
| * * * * * * * *
|
| S S S S + H.
|D|----------------------------------------------------------------|
|A|------------R---R-----------------------------------------------|
|F|------------E---E-----------------------------------------------|
|C|------------S---S-----------------------------------------------|
|G|0---0---0---T---T-----------------------------------------------|
|C|0---0---0-------------------------------------------------------|
* * *
1 e + a 2 e + a 3 e + a 4 e + a


S S S S S S S S S S S S S S S S
|D|----------------------------------------------------------------|
|A|----------------------------------------------------------------|
|F|----------h---------------h---------------h---------------h-----|
|C|--------/---\-----------/---\-----------/---\-----------/---\---|
|G|--------10--9-----------7---9-----------9---7-----------7---5---|
|C|0---0-----------0---0-----------0---0-----------0---0-----------|
| * * * * * * * *
|
| S S S S + H.
|D|----------------------------------------------------------------|
|A|------------R---R-----------------------------------------------|
|F|------------E---E-----------------------------------------------|
|C|------------S---S-----------------------------------------------|
|G|0---0---0---T---T-----------------------------------------------|
|C|0---0---0-------------------------------------------------------|
* * *
1 e + a 2 e + a 3 e + a 4 e + a


S S S S S S S S S S S S S S S S
|D|----------------------------------------------------------------|
|A|----------------------------------------------------------------|
|F|----------h---------------h---------------h---------------h-----|
|C|--------/---\-----------/---\-----------/---\-----------/---\---|
|G|--------10--9-----------7---9-----------12--9-----------10--9---|
|C|0---0-----------0---0-----------0---0-----------0---0-----------|
| * * * * * * * *
|
| S S S S + Q S + Q
|D|----------------------------------------------------------------|
|A|------------R---R---------------------------R---R---------------|
|F|------------E---E---------------------------E---E---------------|
|C|------------S---S---------------------------S---S---------------|
|G|9---9---9---T---T---------------9---9---9---T---T---------------|
|C|9---9---9-----------------------9---9---9-----------------------|
* * * * * *
1 e + a 2 e + a 3 e + a 4 e + a


S S S S S S S S S S S S Q
|D|----------------------------------------------------------------|
|A|----------------------------------------------------------------|
|F|----------h---------------h---------------h---------------------|
|C|--------/---\-----------/---\-----------/---\-------------------|
|G|--------10--9-----------7---9-----------9---7-------------------|
|C|0---0-----------0---0-----------0---0-----------12/(SLIDE DOWN)-|
| * * * * * *
|
| S S S S + Q S Q
|D|----------------------------------------------------------------|
|A|------------R---R--------------------------R--------------------|
|F|------------E---E--------------------------E--------------------|
|C|------------S---S--------------------------S--------------------|
|G|5---5---5---T---T---------------5---5---5--T--------------------|
|C|5---5---5-----------------------5---5---5-------12/(SLIDE DOWN)-|
* * * * * *
1 e + a 2 e + a 3 e + a 4 e + a


Bridge:

E E E E E E E E E. E E E E E E E
|D|--------------------------------|--------------------------------|
|A|------------------------------R-|--------------------------------|
|F|------------------------------E-|--------------------------------|
|C|4---4---4---4---4---4---4---4-S-|----4---4---4---4---4---4---4---|
|G|2---2---2---2---2---2---2---1-T-|----1---1---1---1---1---1---1---|
|C|--------------------------------|--------------------------------|

1 e + a 2 e + a 3 e + a 4 e + a 1 e + a 2 e + a 3 e + a 4 e + a


E E E E E E E E E E E E E E E E
|D|--------------------------------|--------------------------------|
|A|--------------------------------|--------------------------------|
|F|--------------------------------|--------------------------------|
|C|5---5---5---5---5---5---5---5---|--------------------------------|
|G|5---5---5---5---5---5---5---5---|--------------------------------|
|C|5---5---5---5---5---5---5---5---|0---0---2---4---2---2---0---0---|

1 e + a 2 e + a 3 e + a 4 e + a 1 e + a 2 e + a 3 e + a 4 e + a


E E E E E E E E E Q. H
|D|--------------------------------|--------------------------------|
|A|--------R---------------R-------|----R-----------R---------------|
|F|--------E---------------E-------|----E-----------E---------------|
|C|0---0---S---0---0---0---S---0---|0---S-----------S---------------|
|G|2---2---T---2---2---2---T---2---|1---T-----------T---------------|
|C|--------------------------------|--------------------------------|

1 e + a 2 e + a 3 e + a 4 e + a 1 e + a 2 e + a 3 e + a 4 e + a


Chorus:

E E E E E E E E E E E E E E E E
|D|--------------------------------|--------------------------------|
|A|--------------------------------|--------------------------------|
|F|--------------------------------|--------------------------------|
|C|0---0---0---2---2---0---0---5---|5---0---0---7---7---7---7---7---|
|G|0---0---0---2---2---0---0---5---|5---0---0---7---7---7---7---7---|
|C|0---0---0---2---2---0---0---5---|5---0---0---7---7---7---7---7---|

1 e + a 2 e + a 3 e + a 4 e + a 1 e + a 2 e + a 3 e + a 4 e + a


E E E E E E E E E E E E E E E E
|D|--------------------------------|--------------------------------|
|A|--------------------------------|--------------------------------|
|F|--------------------------------|--------------------------------|
|C|0---0---0---2---2---2---2---5---|5---5---5---5---5---5---5---5---|
|G|0---0---0---2---2---2---2---5---|5---5---5---5---5---5---5---5---|
|C|0---0---0---2---2---2---2---5---|5---5---5---5---5---5---5---5---|

1 e + a 2 e + a 3 e + a 4 e + a 1 e + a 2 e + a 3 e + a 4 e + a


E E E E E E E E E E E E E E E E
|D|--------------------------------|--------------------------------|
|A|--------------------------------|--------------------------------|
|F|--------------------------------|--------------------------------|
|C|0---0---0---2---2---0---0---5---|5---0---0---7---7---7---7---7---|
|G|0---0---0---2---2---0---0---5---|5---0---0---7---7---7---7---7---|
|C|0---0---0---2---2---0---0---5---|5---0---0---7---7---7---7---7---|

1 e + a 2 e + a 3 e + a 4 e + a 1 e + a 2 e + a 3 e + a 4 e + a


E E E E E E E E E E E E E E E E
|D|--------------------------------|--------------------------------|
|A|--------------------------------|--------------------------------|
|F|--------------------------------|--------------------------------|
|C|0---0---0---2---2---2---2---5---|5---5---5---5---5---5---5---5---|
|G|0---0---0---2---2---2---2---5---|5---5---5---5---5---5---5---5---|
|C|0---0---0---2---2---2---2---5---|5---5---5---5---5---5---5---5---|

1 e + a 2 e + a 3 e + a 4 e + a 1 e + a 2 e + a 3 e + a 4 e + a


E E E E E E E E E E E E E E E E
|D|--------------------------------|--------------------------------|
|A|--------------------------------|--------------------------------|
|F|--------------------------------|--------------------------------|
|C|2---2---2---2---2---2---2---2---|5---5---5---5---5---5---5---5---|
|G|2---2---2---2---2---2---2---2---|5---5---5---5---5---5---5---5---|
|C|2---2---2---2---2---2---2---2---|5---5---5---5---5---5---5---5---|

1 e + a 2 e + a 3 e + a 4 e + a 1 e + a 2 e + a 3 e + a 4 e + a


Break:

E E E E E E Q + E
|D|--------------------------------|--------------------------------|
|A|--------------------------------|--------------------------------|
|F|--------------------12--11------|(11)----------------12--11------|
|C|0---0---0---0---0---x---x-------|(x)-0---0---0---0---x---x-------|
|G|0---0---0---0---0---10--9-------|(9)-0---0---0---0---10--9-------|
|C|0---0---0---0---0---------------|----0---0---0---0---------------|
|
|
| E E E Q E Q + E E E Q E Q
|D|--------5-----------------------|--------5-----------------------|
|A|----7-------7-------------------|----7-------7-------------------|
|F|7-----------------------7-------|(7)---------------------7-------|
|C|--------------------0-----------|--------------------0-----------|
|G|--------------------------------|--------------------------------|
|C|--------------------------------|--------------------------------|

1 e + a 2 e + a 3 e + a 4 e + a 1 e + a 2 e + a 3 e + a 4 e + a


E E E E E E Q + E E E E E E E E
|D|--------------------------------|--------------------------------|
|A|--------------------------------|--------------------------------|
|F|--------------------12--11------|(11)----------------11--11/-12--|
|C|5---5---5---5---5---x---x-------|(x)-7---7---7---7---x---x---x---|
|G|5---5---5---5---5---10--9-------|(9)-7---7---7---7---9---9-/-10--|
|C|5---5---5---5---5---------------|----7---7---7---7---------------|
|
|
| E E E Q E Q + E E E Q E Q
|D|--------5-----------------------|--------5-----------------------|
|A|----7-------7-------------------|----7-------7-------------------|
|F|7-----------------------7-------|(7)-----------------6---6-/-7---|
|C|--------------------0-----------|--------------------x---x---x---|
|G|--------------------------------|--------------------4---4-/-5---|
|C|--------------------------------|--------------------------------|

1 e + a 2 e + a 3 e + a 4 e + a 1 e + a 2 e + a 3 e + a 4 e + a


E E E E E E Q + E
|D|--------------------------------|--------------------------------|
|A|--------------------------------|--------------------------------|
|F|--------------------12--11------|(11)----------------12--11------|
|C|0---0---0---0---0---x---x-------|(x)-0---0---0---0---x---x-------|
|G|0---0---0---0---0---10--9-------|(9)-0---0---0---0---10--9-------|
|C|0---0---0---0---0---------------|----0---0---0---0---------------|
|
|
| E E E Q E Q + E E E Q E Q
|D|--------5-----------------------|--------5-----------------------|
|A|----7-------7-------------------|----7-------7-------------------|
|F|7-----------------------7-------|(7)---------------------7-------|
|C|--------------------0-----------|--------------------0-----------|
|G|--------------------------------|--------------------------------|
|C|--------------------------------|--------------------------------|

1 e + a 2 e + a 3 e + a 4 e + a 1 e + a 2 e + a 3 e + a 4 e + a


E E E E E E Q + E E E E E E E E
|D|--------------------------------|--------------------------------|
|A|--------------------------------|--------------------------------|
|F|--------------------12--11------|(11)----------------11--11/-12--|
|C|5---5---5---5---5---x---x-------|(x)-7---7---7---7---x---x---x---|
|G|5---5---5---5---5---10--9-------|(9)-7---7---7---7---9---9-/-10--|
|C|5---5---5---5---5---------------|----7---7---7---7---------------|
|
|
| E E E Q E Q + E E E Q E Q
|D|--------5-----------------------|--------5-----------------------|
|A|----7-------7-------------------|----7-------7-------------------|
|F|7-----------------------7-------|(7)-----------------6---6-/-7---|
|C|--------------------0-----------|--------------------x---x---x---|
|G|--------------------------------|--------------------4---4-/-5---|
|C|--------------------------------|--------------------------------|

1 e + a 2 e + a 3 e + a 4 e + a 1 e + a 2 e + a 3 e + a 4 e + a


S S S S S S S S E E Q + E S S S S S S E E Q
|D|--------------------------------|--------------------------------|
|A|--------------------------------|--------------------------------|
|F|--------------------12--11------|(11)----------------12--11------|
|C|--------------------x---x-------|(x)-----------------x---x-------|
|G|0-0-0-0-0-0-0-0-0---10--9-------|(9)-0-0-0-0-0-0-0---10--9-------|
|C|0-0-0-0-0-0-0-0-0---------------|----0-0-0-0-0-0-0---------------|
| * * * * * * * * * * * * * * * *
|
|
|D|--------------------------------|--------------------------------|
|A|--------------------------------|--------------------------------|
|F|--------------------6---7-------|(7)-----------------6---7-------|
|C|--------------------x---x-------|(x)-----------------x---x-------|
|G|0-0-0-0-0-0-0-0-0---4---5-------|(5)-0-0-0-0-0-0-0---4---5-------|
|C|0-0-0-0-0-0-0-0-0---------------|----0-0-0-0-0-0-0---------------|
* * * * * * * * * * * * * * * *
1 e + a 2 e + a 3 e + a 4 e + a 1 e + a 2 e + a 3 e + a 4 e + a


S S S S S S S S E E Q S S E S S Q S S S S E
|D|--------------------------------|--------------------------------|
|A|--------------------------------|----R-------R---------R-----R---|
|F|--------------------12--11------|----E-------E---------E-----E---|
|C|--------------------x---x-------|----S-------S---------S-----S---|
|G|5-5-5-5-5-5-5-5-5---10--9-------|0-0-T---0-0-T-------0-T-0-0-T---|
|C|5-5-5-5-5-5-5-5-5---------------|--------------------------------|
| * * * * * * * * * * * * * * * *
|
| S S S S S S S S E E Q S S E S S Q S S S S E
|D|--------------------------------|--------------------------------|
|A|--------------------------------|----R-------R---------R-----R---|
|F|--------------------6---7-------|----E-------E---------E-----E---|
|C|--------------------x---x-------|----S-------S---------S-----S---|
|G|5-5-5-5-5-5-5-5-5---4---5-------|0-0-T---0-0-T-------0-T-0-0-T---|
|C|5-5-5-5-5-5-5-5-5---------------|--------------------------------|
* * * * * * * * * * * * * * * *
1 e + a 2 e + a 3 e + a 4 e + a 1 e + a 2 e + a 3 e + a 4 e + a


S S S S S S S S E E Q + E S S S S S S E E Q
|D|--------------------------------|--------------------------------|
|A|--------------------------------|--------------------------------|
|F|--------------------12--11------|(11)----------------12--11------|
|C|--------------------x---x-------|(x)-----------------x---x-------|
|G|0-0-0-0-0-0-0-0-0---10--9-------|(9)-0-0-0-0-0-0-0---10--9-------|
|C|0-0-0-0-0-0-0-0-0---------------|----0-0-0-0-0-0-0---------------|
| * * * * * * * * * * * * * * * *
|
| S S S S S S S S E E Q + E S S S S S S E E Q
|D|--------------------------------|--------------------------------|
|A|--------------------------------|--------------------------------|
|F|--------------------6---7-------|(7)-----------------6---7-------|
|C|--------------------x---x-------|(x)-----------------x---x-------|
|G|0-0-0-0-0-0-0-0-0---4---5-------|(5)-0-0-0-0-0-0-0---4---5-------|
|C|0-0-0-0-0-0-0-0-0---------------|----0-0-0-0-0-0-0---------------|
* * * * * * * * * * * * * * * *
1 e + a 2 e + a 3 e + a 4 e + a 1 e + a 2 e + a 3 e + a 4 e + a


S S S S S S S S E E Q S S E S S Q S S S S E
|D|--------------------------------|--------------------------------|
|A|--------------------------------|----R-------R---------R-----R---|
|F|--------------------12--11------|----E-------E---------E-----E---|
|C|--------------------x---x-------|----S-------S---------S-----S---|
|G|5-5-5-5-5-5-5-5-5---10--9-------|0-0-T---0-0-T-------0-T-0-0-T---|
|C|5-5-5-5-5-5-5-5-5---------------|--------------------------------|
| * * * * * * * * * * * * * * * *
|
| S S S S S S S S E E Q S S E S S Q S S S S E
|D|--------------------------------|--------------------------------|
|A|--------------------------------|----R-------R---------R-----R---|
|F|--------------------6---7-------|----E-------E---------E-----E---|
|C|--------------------x---x-------|----S-------S---------S-----S---|
|G|5-5-5-5-5-5-5-5-5---4---5-------|0-0-T---0-0-T-------0-T-0-0-T---|
|C|5-5-5-5-5-5-5-5-5---------------|--------------------------------|
* * * * * * * * * * * * * * * *
1 e + a 2 e + a 3 e + a 4 e + a 1 e + a 2 e + a 3 e + a 4 e + a


Chorus:

E E E E E E E E E E E E E E E E
|D|--------------------------------|--------------------------------|
|A|--------------------------------|--------------------------------|
|F|--------------------------------|--------------------------------|
|C|--------------------------------|--------------------------------|
|G|--------------------------------|--------------------------------|
|C|0---0---0---2---2---0---0---5---|5---0---0---7---7---7---7---7---|

1 e + a 2 e + a 3 e + a 4 e + a 1 e + a 2 e + a 3 e + a 4 e + a


E E E E E E E E E E E E E S S Q
|D|--------------------------------|--------------------------------|
|A|--------------------------------|--------------------------------|
|F|--------------------------------|--------------------------------|
|C|--------------------------------|--------------------------------|
|G|--------------------------------|--------------------------------|
|C|0---0---0---2---2---2---2---5---|5---5---5---5---0---0-0-12/-----|
* *
1 e + a 2 e + a 3 e + a 4 e + a 1 e + a 2 e + a 3 e + a 4 e + a


E E E E E E E E E E E E E E E E
|D|--------------------------------|--------------------------------|
|A|--------------------------------|--------------------------------|
|F|--------------------------------|--------------------------------|
|C|0---0---0---2---2---0---0---5---|5---0---0---7---7---7---7---7---|
|G|0---0---0---2---2---0---0---5---|5---0---0---7---7---7---7---7---|
|C|0---0---0---2---2---0---0---5---|5---0---0---7---7---7---7---7---|

1 e + a 2 e + a 3 e + a 4 e + a 1 e + a 2 e + a 3 e + a 4 e + a


E E E E E E E E E E E E E E E E
|D|--------------------------------|--------------------------------|
|A|--------------------------------|--------------------------------|
|F|--------------------------------|--------------------------------|
|C|0---0---0---2---2---2---2---5---|5---5---5---5---5---5---5---5---|
|G|0---0---0---2---2---2---2---5---|5---5---5---5---5---5---5---5---|
|C|0---0---0---2---2---2---2---5---|5---5---5---5---5---5---5---5---|

1 e + a 2 e + a 3 e + a 4 e + a 1 e + a 2 e + a 3 e + a 4 e + a


E E E E E E E E E E E E E E E E
|D|--------------------------------|--------------------------------|
|A|--------------------------------|--------------------------------|
|F|--------------------------------|--------------------------------|
|C|0---0---0---2---2---0---0---5---|5---0---0---7---7---7---7---7---|
|G|0---0---0---2---2---0---0---5---|5---0---0---7---7---7---7---7---|
|C|0---0---0---2---2---0---0---5---|5---0---0---7---7---7---7---7---|

1 e + a 2 e + a 3 e + a 4 e + a 1 e + a 2 e + a 3 e + a 4 e + a


E E E E E E E E E E E E E E E E
|D|--------------------------------|--------------------------------|
|A|--------------------------------|--------------------------------|
|F|--------------------------------|--------------------------------|
|C|0---0---0---2---2---2---2---5---|5---5---5---5---5---5---5---5---|
|G|0---0---0---2---2---2---2---5---|5---5---5---5---5---5---5---5---|
|C|0---0---0---2---2---2---2---5---|5---5---5---5---5---5---5---5---|

1 e + a 2 e + a 3 e + a 4 e + a 1 e + a 2 e + a 3 e + a 4 e + a


E E E E E E E E E E E E E E E E
|D|--------------------------------|--------------------------------|
|A|--------------------------------|--------------------------------|
|F|--------------------------------|--------------------------------|
|C|0---0---0---2---2---0---0---5---|5---0---0---7---7---7---7---7---|
|G|0---0---0---2---2---0---0---5---|5---0---0---7---7---7---7---7---|
|C|0---0---0---2---2---0---0---5---|5---0---0---7---7---7---7---7---|

1 e + a 2 e + a 3 e + a 4 e + a 1 e + a 2 e + a 3 e + a 4 e + a


E E E E E E E E E E E E E E E E
|D|--------------------------------|--------------------------------|
|A|--------------------------------|--------------------------------|
|F|--------------------------------|--------------------------------|
|C|0---0---0---2---2---2---2---5---|5---5---5---5---5---5---5---5---|
|G|0---0---0---2---2---2---2---5---|5---5---5---5---5---5---5---5---|
|C|0---0---0---2---2---2---2---5---|5---5---5---5---5---5---5---5---|

1 e + a 2 e + a 3 e + a 4 e + a 1 e + a 2 e + a 3 e + a 4 e + a


E E E E E E E E E E E E E E E E
|D|--------------------------------|--------------------------------|
|A|--------------------------------|--------------------------------|
|F|--------------------------------|--------------------------------|
|C|2---2---2---2---2---2---2---2---|5---5---5---5---5---5---5---5---|
|G|2---2---2---2---2---2---2---2---|5---5---5---5---5---5---5---5---|
|C|2---2---2---2---2---2---2---2---|5---5---5---5---5---5---5---5---|

1 e + a 2 e + a 3 e + a 4 e + a 1 e + a 2 e + a 3 e + a 4 e + a


E E E E E E E E W
|D|--------------------------------|--------------------------------|
|A|--------------------------------|--------------------------------|
|F|--------------------------------|--------------------------------|
|C|2---2---2---2---2---2---2---2---|5-------------------------------|
|G|2---2---2---2---2---2---2---2---|5-------------------------------|
|C|2---2---2---2---2---2---2---2---|5-------------------------------|

1 e + a 2 e + a 3 e + a 4 e + a 1 e + a 2 e + a 3 e + a 4 e + a


Ending:

S S S S S S S S S S E S S E E E E E S S E S S E
|D|--------------------------------|--------------------------------|
|A|--------------------R-------R---|R-------------------R-------R---|
|F|--------------------E-------E---|E-------------------E-------E---|
|C|--------------------S-------S---|S-------------------S-------S---|
|G|0-0-0-0-0-0-0-0-0-0-T---0-0-T---|T---0---0---0---0-0-T---0-0-T---|
|C|0-0-0-0-0-0-0-0-0-0-----0-0-----|----0---0---0---0-0-----0-0-----|
* * * * * * * * * * * * * * * * * * *
1 e + a 2 e + a 3 e + a 4 e + a 1 e + a 2 e + a 3 e + a 4 e + a


S S S S S S S S S S E S S E S S E S S E E S E S E
|D|--------------------------------|--------------------------------|
|A|--------------------R-------R---|----R-------R-------------------|
|F|--------------------E-------E---|----E-------E-------------------|
|C|--------------------S-------S---|----S-------S-------------------|
|G|0-0-0-0-0-0-0-0-0-0-T---0-0-T---|0-0-T---0-0-T---0---0-0---0-0---|
|C|0-0-0-0-0-0-0-0-0-0-----0-0-----|0-0-----0-0-----0---0-0---0-0---|
* * * * * * * * * * * * * * * * * * * * *
1 e + a 2 e + a 3 e + a 4 e + a 1 e + a 2 e + a 3 e + a 4 e + a


S S S S S S S S S S E S S E E E E E S S E S S E
|D|--------------------------------|--------------------------------|
|A|--------------------R-------R---|R-------------------R-------R---|
|F|--------------------E-------E---|E-------------------E-------E---|
|C|--------------------S-------S---|S-------------------S-------S---|
|G|0-0-0-0-0-0-0-0-0-0-T---0-0-T---|T---0---0---0---0-0-T---0-0-T---|
|C|0-0-0-0-0-0-0-0-0-0-----0-0-----|----0---0---0---0-0-----0-0-----|
* * * * * * * * * * * * * * * * * * *
1 e + a 2 e + a 3 e + a 4 e + a 1 e + a 2 e + a 3 e + a 4 e + a


S S S S S S S S S S E S S E S S E S S E E S E S E
|D|--------------------------------|--------------------------------|
|A|--------------------R-------R---|----R-------R-------------------|
|F|--------------------E-------E---|----E-------E-------------------|
|C|--------------------S-------S---|----S-------S-------------------|
|G|0-0-0-0-0-0-0-0-0-0-T---0-0-T---|0-0-T---0-0-T---0---0-0---0-0---|
|C|0-0-0-0-0-0-0-0-0-0-----0-0-----|0-0-----0-0-----0---0-0---0-0---|
* * * * * * * * * * * * * * * * * * * * *
1 e + a 2 e + a 3 e + a 4 e + a 1 e + a 2 e + a 3 e + a 4 e + a
Tunning: Drop C (C G C F A D)
Tuning: Drop C [CGCFAD]


[Intro]

D|-------------------------------------------------------------------------|
A|-------------------------------------------------------------------------|
F|-------------------------------------------------------------------------|
C|-------------------------------------------------------------------------|
G|-00000000-00-00--0-0-0-00-00--99999999-99-99-55-55-55----4---------------|
C|-00000000-00-00--0-0-0-00-00--99999999-99-99-55-55-55-5h7----------------|

D|-------------------------------------------------------------------------|
A|-------------------------------------------------------------------------|
F|-------------------------------------------------------------------------|
C|-------------------------------------------------------------------------|
G|-00000000-00-00--0-0-0-00-00--99999999-99-99-55-55-55-5555---------------|
C|-00000000-00-00--0-0-0-00-00--99999999-99-99-55-55-55-5555---------------|


[Verse]

D|---------------|
A|---------------|
F|---------------|
C|---0---9---5---| [x2]
G|---0---9---5---|
C|---0---9---5---|


[Pre-Chorus]

D|-------------------------------------------------------------------------|
A|-------------------------------------------------------------------------|
F|-------------------------------------------------------------------------|
C|-99999999--8888888-55555555-------------------99999998--5555-------------|
G|-99999999--8888888-55555555-------------------99999998--5555-------------|
C|-99999999--8888888-55555555--0-0-2-4-2-2-0-0--99999998--5555-------------|


[Chorus]

D|-------------------------------------------|
A|-------------------------------------------|
F|-------------------------------------------|
C|-000-22-00-55-00-77777-000-2222-555555555--| [x2]
G|-000-22-00-55-00-77777-000-2222-555555555--|
C|-000-22-00-55-00-77777-000-2222-555555555--|

Then:
D|-------------|
A|-------------|
F|-------------|
C|-22222222-55-|
G|-22222222-55-|
C|-22222222-55-|

And back to intro part...

D|-------------------------------------------------------------------------|
A|-------------------------------------------------------------------------|
F|-------------------------------------------------------------------------|
C|-------------------------------------------------------------------------|
G|-00000000-00-00--0-0-0-00-00--99999999-99-99-55-55-55----4---------------|
C|-00000000-00-00--0-0-0-00-00--99999999-99-99-55-55-55-5h7----------------|

D|-----------------------------------------------------------------|
A|-----------------------------------------------------------------|
F|-----------------------------------------------------------------|
C|-----------------------------------------------------------------|
G|-00000000-00-00--0-0-0-00-00--99999999-99-99-55-55---------------|
C|-00000000-00-00--0-0-0-00-00--99999999-99-99-55-55--[pickslide]--|


[Breakdown 1]

Guitar 1
D|---------------------------------------------------------|
A|---------------------------------------------------------|
F|---------------------------------------------------------|
C|-00-4h5-00-5p4-00-7p4-00-5p4-00-4h5-00-5p4-00-2h4-00-4p2-|
G|---------------------------------------------------------|
C|---------------------------------------------------------|

D|---------------------------------------------------------|
A|---------------------------------------------------------|
F|---------------------------------------------------------|
C|-00-4h5-00-5p4-00-7p4-00-5p4-00-4h5-00-5p4-00-2h4-4------|
G|---------------------------------------------------------|
C|---------------------------------------------------------|

Guitar 2
D|--------------------------------------|
A|--------------------------------------|
F|--------------------------------------|
C|-000------000------999--999--555--555-|
G|-000------000------999--999--555--555-|
C|-000------000------999--999--555--555-|

[Sorry guys, I haven't gotten the whole second breakdown right yet, as soon
as I do I'll have it up, I have the second guitar though.]


[Breakdown 2]

Guitar 2
D|----------------------------------------------------------------|
A|----------------------------------------------------------------|
F|----------------------------------------------------------------| [x2]
C|-0-0-0-0-------0-0-0-------5-5-5-5-------7-7-7------------------|
G|-0-0-0-0--4-5--0-0-0--4-5--5-5-5-5--4-5--7-7-7--4-4h5-----------|
C|-0-0-0-0-------0-0-0-------5-5-5-5-------7-7-7------------------|

D|----------------------------------------------------|
A|----------------------------------------------------|
F|----------------------------------------------------| [x2]
C|----------------------------------------------------|
G|-----------4-5---------4-5-----------4-5------------|
C|-000000000-----0000000-----555555555-----77-77-7-77-|

D|-------------------------------------------|
A|-------------------------------------------|
F|-------------------------------------------|
C|-------------------------------------------|
G|-------------------------------------------|
C|-000-22-00-55-00-77777--000-2222-555555555-|


[Outro]

D|-----------------------------------------------------------|
A|-----------------------------------------------------------|
F|-----------------------------------------------------------|
C|-----------------------------------------------------------|
G|-----------------------------------------------------------|
C|-00000000-00-00--0-0-0-00-00--00000000-00-00-00-00-0-00-00-|


And here's the order for you:


[Intro]
[Verse]
[Pre-Chorus]
[Chorus]
[Intro Part]
[Verse]
[Breakdown 1]
[Pre-Chorus]
[Chorus]
[Breakdown 2]
[Chorus]
[Outro]

This sounds right to me, they're not all exactly the same every time,
but if you listen to the song you can hear all the small changes,
I have all of the right parts down. Happy playing!



************************************

| h Hammer-on
| p Pull-off

************************************
Tunning: Drop C (C G C F A D)
Artist: A Day To Remember
Song: The Downfall Of Us All
Tuning: Dropped C (CGCFAD)
Tabbed by: Entite


This is my first tab but I think it's pretty much 90+% accurate.
I play it this way atleast and it sounds perfect.
If there is any mistakes feel free to leave a comment or send me a PM on the forum =)

DuhDuhDuhDuhDuhDuhDuhDuh DuhDuh DuhDuh Duh Duh Duh DuhDuh DuhDuh
DuhDuhDuhDuhDuhDuhDuhDuh DuhDuh DuhDuh DuhDuh Let's gooo

00:07-00:21
D|-----------------------------------------------------------------|
A|-----------------------------------------------------------------|
F|-----------------------------------------------------------------|
C|-----------------------------------------------------------------|
G|-00000000-00-00--0-0-0-00-00--99999999-99-99-55-55-55----4-------|
C|-00000000-00-00--0-0-0-00-00--99999999-99-99-55-55-55-5h7--------|
........ .. .. . . . .. .. ........ .. .. .. .. ..
D|-----------------------------------------------------------------|
A|-----------------------------------------------------------------|
F|-----------------------------------------------------------------|
C|-----------------------------------------------------------------|
G|-00000000-00-00--0-0-0-00-00--99999999-99-99-55-55-55-5555-------|
C|-00000000-00-00--0-0-0-00-00--99999999-99-99-55-55-55-5555-------|
........ .. .. . . . .. .. ........ .. .. .. .. .. ....

00:22-00:35
D|---------------------------------|
A|---------------------------------|
F|---------------------------------|
C|---0~--9~--5~----0~-----9~--5~---|
G|---0~--9~--5~----0~-----9~--5~---|
G|---0~--9~--5~----0~-----9~--5~---|

00:36-00:47
D|------------------------------------------------------------------|
A|------------------------------------------------------------------|
F|------------------------------------------------------------------|
C|-99999998--8888888-55555555-------------------99999998--5555------|
G|-99999998--8888888-55555555-------------------99999998--5555------|
C|-99999998--8888888-55555555--0-0-2-4-2-2-0-0--99999998--5555------|
....
00:48-01:01
D|-------------------------------------------|
A|-------------------------------------------|
F|-------------------------------------------|
C|-000-22-00-55-00-77777-000-2222-555555555--| x2
G|-000-22-00-55-00-77777-000-2222-555555555--|
C|-000-22-00-55-00-77777-000-2222-555555555--|

01:02-01:04
D|-------------|
A|-------------|
F|-------------|
C|-22222222-55-|
G|-22222222-55-|
C|-22222222-55-|

01:06-01:20
D|-----------------------------------------------------------------|
A|-----------------------------------------------------------------|
F|-----------------------------------------------------------------|
C|-----------------------------------------------------------------|
G|-00000000-00-00--0-0-0-00-00--99999999-99-99-55-55-55----4-------|
C|-00000000-00-00--0-0-0-00-00--99999999-99-99-55-55-55-5h7--------|
........ .. .. . . . .. .. ........ .. .. .. .. ..
D|-----------------------------------------------------------------|
A|-----------------------------------------------------------------|
F|-----------------------------------------------------------------|
C|-----------------------------------------------------------------|
G|-00000000-00-00--0-0-0-00-00--99999999-99-99-55-55---------------|
C|-00000000-00-00--0-0-0-00-00--99999999-99-99-55-55--[PickSlide]--|
........ .. .. . . . .. .. ........ .. .. .. ..

01:21-01:27
D|---------------|
A|---------------|
F|---------------|
C|---0~--9~--5~--|
G|---0~--9~--5~--|
G|---0~--9~--5~--|


01:28-01:35
D|---------------------------------------------------------|
A|---------------------------------------------------------|
F|---------------------------------------------------------|
C|-00-4h5-00-5p4-00-7p4-00-5p4-00-4h5-00-5p4-00-2h4-00-4p2-|
G|---------------------------------------------------------|
C|---------------------------------------------------------|
Lead
D|---------------------------------------------------------|
A|---------------------------------------------------------|
F|---------------------------------------------------------|
C|-00-4h5-00-5p4-00-7p4-00-5p4-00-4h5-00-5p4-00-2h4-4------|
G|---------------------------------------------------------|
C|---------------------------------------------------------|

D|--------------------------------------|
A|--------------------------------------|
F|--------------------------------------|
C|-000------000------999--999--555--555-| Rhythm
G|-000------000------999--999--555--555-|
C|-000------000------999--999--555--555-|
... ... ... ... ... ...

01:36-01:45
D|--------------------------------------------------------------|
A|--------------------------------------------------------------|
F|--------------------------------------------------------------|
C|-99999998--8888888-55555555-------------------99-9-99-9-8-----|
G|-99999998--8888888-55555555-------------------99-9-99-9-8-----|
C|-99999998--8888888-55555555--0-0-2-4-2-2-0-0--99-9-99-9-8-----|

01:46-02:00
D|-------------------------------------------|
A|-------------------------------------------|
F|-------------------------------------------|
C|-000-22-00-55-00-77777-000-2222-555555555--| x2
G|-000-22-00-55-00-77777-000-2222-555555555--|
C|-000-22-00-55-00-77777-000-2222-555555555--|

02:01-02:04
D|-------------------|
A|-------------------|
F|-------------------|
C|-22222222-55555555-|
G|-22222222-55555555-|
C|-22222222-55555555-|

02:05-02:19
D|----------------------------------------------------------------|
A|----------------------------------------------------------------|
F|----------------------------------------------------------------| [x2]
C|-0-0-0-0--------0-0-0--------5-5-5-5--------7-7-7---------------|
G|-0-0-0-0--10p9--0-0-0--10p9--5-5-5-5--10p9--7-7-7--4-4h5--------|
C|-0-0-0-0--------0-0-0--------5-5-5-5--------7-7-7---------------|

02;20-02:34
D|-------------------------------------------------------|
A|-------------------------------------------------------|
F|-------------------------------------------------------| [x2]
C|-------------------------------------------------------|
G|-----------10p9---------10p9-----------10p9------------|
C|-000000000------0000000------555555555------77-77-7-77-|
......... ....... ......... .. .. . ..

02:35-02:40
D|-------------------------------------------|
A|-------------------------------------------|
F|-------------------------------------------|
C|-------------------------------------------|
G|-------------------------------------------|
C|-000-22-00-55-00-77777--000-2222-555555555-|

02:41-03:03
D|-------------------------------------------|
A|-------------------------------------------|
F|-------------------------------------------|
C|-000-22-00-55-00-77777-000-2222-555555555--| x3
G|-000-22-00-55-00-77777-000-2222-555555555--|
C|-000-22-00-55-00-77777-000-2222-555555555--|

03:04-03:10
D|--------------------------------|
A|--------------------------------|
F|--------------------------------|
C|-22222222-55555555-22222222-5~--|
G|-22222222-55555555-22222222-5~--|
C|-22222222-55555555-22222222-5~--|

03:11-03:26
D|-----------------------------------------------------------|
A|-----------------------------------------------------------|
F|-----------------------------------------------------------|
C|-----------------------------------------------------------| x2
G|-00000000-00-00--0-0-0-00-00--00000000-00-00-00-00-0-00-00-|
C|-00000000-00-00--0-0-0-00-00--00000000-00-00-00-00-0-00-00-|
........ .. .. . . . .. .. ........ .. .. .. .. . .. ..


. = Palm Mute
h = Hammeron
p = Pull Off
~ = Let Ring
Tunning: Standard (E A D G B e)
I didn't agree with a lot of the other versions of this and the harmonization so I
figured I'd give this a go.
This was ripped directly from my powertab. Enjoy!

#----------------------------------PLEASE NOTE---------------------------------#
#This file is the author's own work and represents their interpretation of the #
#song. You may only use this file for private study, scholarship, or research. #
#------------------------------------------------------------------------------#

THE DOWNFALL OF US ALL
As recorded by A Day To Remember
(From the 2009 Album HOMESICK)

Transcribed by Jonathan Rose


Words and Music by A Day To Remember

Gtr I (C G C F A D) - 'Guitar 1'
Gtr II (C G C F A D) - 'Guitar 2'
Gtr III (C G C F A D) - 'Overdub'
Gtr IV (C G C F A D) - 'Pickscrape'

Chant
Popcore Q=130
N.C.
4/4
Gtrs I, II
Wx4
|--------||
|--------||
|--------||
|--------||
|--------||
|--------||


"Let's go!"
D5
PM----------------------| PM------| PM|
S S S S S S S S S S E S S E E E E E S S E S S E
|-----------------------------|---------------------|
|-----------------------------|---------------------|
|-----------------------------|---------------------|
|-----------------------------|---------------------|
|-0-0-0-0-0-0-0-0-0-0---0-0---|---0-0-0-0-0---0-0---|
|-0-0-0-0-0-0-0-0-0-0---0-0---|---0-0-0-0-0---0-0---|


B5 G5 N.C.
PM----------------| PM| PM| PM| PM--|
S S S S S S S S S S E S S E S S E S S E S S E S S E
|-----------------------------|-------------------------|
|-----------------------------|-------------------------|
|-----------------------------|-------------------------|
|-----------------------------|-------------------------|
|-9-9-9-9-9-9-9-9-9-9---9-9---|-5-5---5-5---5-5-------4-|
|-9-9-9-9-9-9-9-9-9-9---9-9---|-5-5---5-5---5-5---5h7---|


D5
PM----------------| PM| PM------------|
S S S S S S S S S S E S S E E E E E S S E S S E
|-----------------------------|---------------------|
|-----------------------------|---------------------|
|-----------------------------|---------------------|
|-----------------------------|---------------------|
|-0-0-0-0-0-0-0-0-0-0---0-0---|---0-0-0-0-0---0-0---|
|-0-0-0-0-0-0-0-0-0-0---0-0---|---0-0-0-0-0---0-0---|


B5 G5
PM----------------| PM| PM| PM| PM| PM----|
S S S S S S S S S S E S S E S S E S S E S S E S S S S
|-----------------------------|---------------------------||
|-----------------------------|---------------------------||
|-----------------------------|---------------------------||
|-----------------------------|---------------------------||
|-9-9-9-9-9-9-9-9-9-9---9-9---|-5-5---5-5---5-5---5-5-5-5-||
|-9-9-9-9-9-9-9-9-9-9---9-9---|-5-5---5-5---5-5---5-5-5-5-||


"It's not easy making a.."
D5 B5 G5
Gtr I
W W W W
|-----------|----------|-----------|-------|
|-----------|----------|-----------|-------|
|-11--------|-7--------|-11--------|-14----|
|--x--------|-x--------|--x--------|--x----|
|--9--------|-5--------|--9--------|-12----|
|-----------|----------|-----------|-------|
|
| Gtr II
| W W W W
|-----------|----------|-----------|-------|
|-----------|----------|-----------|-------|
|-----------|----------|-----------|-------|
|--0--------|-0--------|--9--------|--5----|
|--0--------|-0--------|--9--------|--5----|
|--0--------|-0--------|--9--------|--5----|


D5 B5 G5
W +W W H +E E E E
|-----------|-------------|-----------|----------------------||
|-----------|-------------|-----------|----------------------||
|-11--------|-(11)--------|-11--------|-14----(14)-12-12-11--||
|--x--------|--(x)--------|--x--------|--x-----(x)--x--x--x--||
|--9--------|--(9)--------|--9--------|-12----(12)-10-10--9--||
|-----------|-------------|-----------|----------------------||
|
| W +W W W
|-----------|-------------|-----------|----------------------||
|-----------|-------------|-----------|----------------------||
|-----------|-------------|-----------|----------------------||
|--0--------|--(0)--------|--9--------|--5-------------------||
|--0--------|--(0)--------|--9--------|--5-------------------||
|--0--------|--(0)--------|--9--------|--5-------------------||


"Oooh!"
B5 Bb5 G5
E E E E E E E +E E E E E E E E E E E E E E E E E
|--------------------|-----------------|-----------------|
|--------------------|-----------------|-----------------|
|-7-7-7-7-7-7-7-(7)\-|---7-7-7-7-7-7-7-|-----------------|
|-x-x-x-x-x-x-x------|---x-x-x-x-x-x-x-|-5-5-5-5-5-5-5-5-|
|-5-5-5-5-5-5-5-(5)\-|---5-5-5-5-5-5-5-|-5-5-5-5-5-5-5-5-|
|--------------------|-----------------|-5-5-5-5-5-5-5-5-|
|
| E E E E E E E +E E E E E E E E E E E E E E E E E
|--------------------|-----------------|-----------------|
|--------------------|-----------------|-----------------|
|--------------------|-----------------|-----------------|
|-9-9-9-9-9-9-9-(9)\-|---8-8-8-8-8-8-8-|-5-5-5-5-5-5-5-5-|
|-9-9-9-9-9-9-9-(9)\-|---8-8-8-8-8-8-8-|-5-5-5-5-5-5-5-5-|
|-9-9-9-9-9-9-9-(9)\-|---8-8-8-8-8-8-8-|-5-5-5-5-5-5-5-5-|


N.C. B5 Bb5 G5
PM----|
E E E E E E E E E E E E E E E E E E E E E E E E
|-----------------|-----------------|-----------------||
|-----------------|-----------------|-----------------||
|-----------------|-7-7-7-7-7-7-7-7-|-----------9-9-9-||
|-----------------|-x-x-x-x-x-x-x-x-|-----------x-x-x-||
|-----------------|-5-5-5-5-5-5-5-5-|---5-5-5-5-7-7-7-||
|-0-0-2-4-2-2-0-0-|-----------------|---5-5-5-5-------||
|
| PM----|
| E E E E E E E E E E E E E E E E E E E E E E E E
|-----------------|-----------------|-----------------||
|-----------------|-----------------|-----------------||
|-----------------|-----------------|-----------------||
|-----------------|-9-9-9-9-9-9-9-8-|-----------5-5-5-||
|-----------------|-9-9-9-9-9-9-9-8-|---5-5-5-5-5-5-5-||
|-0-0-2-4-2-2-0-0-|-9-9-9-9-9-9-9-8-|---5-5-5-5-5-5-5-||


"You'll find me in the.."
D5 E5 D5 G5 D5 A5
E E E E E E E E E E E E E E E E
||--------------------------|-------------------------|
||o-------------------------|-------------------------|
||--14-14-14-14-14-14-14-14-|-14-14-14-14-14-14-14-14-|
||---x--x--x--x--x--x--x--x-|--x--x--x--x--x--x--x--x-|
||o-12-12-12-12-12-12-12-12-|-12-12-12-12-12-12-12-12-|
||--------------------------|-------------------------|
|
| E E E E E E E E E E E E E E E E
||--------------------------|-------------------------|
||o-------------------------|-------------------------|
||--------------------------|-------------------------|
||---0--0--0--2--2--0--0--5-|--5--0--0--7--7--7--7--7-|
||o--0--0--0--2--2--0--0--5-|--5--0--0--7--7--7--7--7-|
||---0--0--0--2--2--0--0--5-|--5--0--0--7--7--7--7--7-|


D5 E5 G5
E E E E E E E E E E E E E E E E
|-------------------------|----------------------||
|-------------------------|---------------------o||
|-14-14-14-14-14-14-14-12-|-12-11-11-7-7-9-9-11--||
|--x--x--x--x--x--x--x--x-|--x--x--x-x-x-x-x--x--||
|-12-12-12-12-12-12-12-10-|-10--9--9-5-5-7-7--9-o||
|-------------------------|----------------------||
|
| E E E E E E E E E E E E E E E E
|-------------------------|----------------------||
|-------------------------|---------------------o||
|-------------------------|----------------------||
|--0--0--0--2--2--2--2--5-|--5--5--5-5-5-5-5--5--||
|--0--0--0--2--2--2--2--5-|--5--5--5-5-5-5-5--5-o||
|--0--0--0--2--2--2--2--5-|--5--5--5-5-5-5-5--5--||


E5 G5
E E E E E E E E E E H.
|-----------------|-------------||
|-----------------|-------------||
|-9-9-9-9-9-9-9-9-|-12-12-------||
|-x-x-x-x-x-x-x-x-|--x--x-------||
|-7-7-7-7-7-7-7-7-|-10-10-------||
|-----------------|-------------||
|
| E E E E E E E E E E H.
|-----------------|-------------||
|-----------------|-------------||
|-----------------|-------------||
|-2-2-2-2-2-2-2-2-|--5--5-------||
|-2-2-2-2-2-2-2-2-|--5--5-------||
|-2-2-2-2-2-2-2-2-|--5--5-------||


"..all."
D5
Gtrs I, II
PM----------------------| PM------| PM|
S S S S S S S S S S E S S E E E E E S S E S S E
|-----------------------------|---------------------|
|-----------------------------|---------------------|
|-----------------------------|---------------------|
|-----------------------------|---------------------|
|-0-0-0-0-0-0-0-0-0-0---0-0---|---0-0-0-0-0---0-0---|
|-0-0-0-0-0-0-0-0-0-0---0-0---|---0-0-0-0-0---0-0---|


B5 G5 N.C.
PM----------------| PM| PM| PM| PM--|
S S S S S S S S S S E S S E S S E S S E S S E S S E
|-----------------------------|-------------------------|
|-----------------------------|-------------------------|
|-----------------------------|-------------------------|
|-----------------------------|-------------------------|
|-9-9-9-9-9-9-9-9-9-9---9-9---|-5-5---5-5---5-5-------4-|
|-9-9-9-9-9-9-9-9-9-9---9-9---|-5-5---5-5---5-5---5h7---|


D5
PM----------------| PM| PM------------|
S S S S S S S S S S E S S E E E E E S S E S S E
|-----------------------------|---------------------|
|-----------------------------|---------------------|
|-----------------------------|---------------------|
|-----------------------------|---------------------|
|-0-0-0-0-0-0-0-0-0-0---0-0---|---0-0-0-0-0---0-0---|
|-0-0-0-0-0-0-0-0-0-0---0-0---|---0-0-0-0-0---0-0---|


B5 G5
Gtr IV
PM----------------| PM| PM| PM| TPTPTPTPTPTPTPTPTP
S S S S S S S S S S E S S E S S E S S E S S S S S S S S a
|-----------------------------|-------------------------------||
|-----------------------------|-------------------------------||
|-----------------------------|-------------------------------||
|-----------------------------|-------------------------------||
|-9-9-9-9-9-9-9-9-9-9---9-9---|-5-5---5-5---xsxsxsxsxsxsxsxsx-||
|-9-9-9-9-9-9-9-9-9-9---9-9---|-5-5---5-5---xsxsxsxsxsxsxsxsx-||


"I'm gonna need you to.."
D5 B5 G5
Gtrs I, II
W +W W W
|----------|------------|----------|------||
|----------|------------|----------|------||
|----------|------------|----------|------||
|-0--------|-(0)--------|-9--------|-5----||
|-0--------|-(0)--------|-9--------|-5----||
|-0--------|-(0)--------|-9--------|-5----||


"Now go tell them we.."
D5
Gtr I
S S S S S S S S S S S S S S S S S S S S S S S S S S S S S S S S
|----------------------------------|----------------------------------|
|----------------------------------|----------------------------------|
|----------------------------------|----------------------------------|
|-0-0-4h5--0-0-5p4-0-0-7p4-0-0-5p4-|-0-0-4h5--0-0-5p4-0-0-2h4-0-0-4p2-|
|----------------------------------|----------------------------------|
|----------------------------------|----------------------------------|
|
| Gtr II
| PM--| PM--|
| S S S H. S S S S H. S
|----------------------------------|----------------------------------|
|----------------------------------|----------------------------------|
|----------------------------------|----------------------------------|
|----------------------------------|----------------------------------|
|-0-0-0----------------------------|-0-0-0----------------------------|
|-0-0-0----------------------------|-0-0-0----------------------------|


B5 G5 B5
S S S S S S S S S S S S S S S S S S S S S S S S S S S S S S S S
|---------------------------------|----------------------------------||
|---------------------------------|----------------------------------||
|---------------------------------|----------------------------------||
|-0-0-4h5-0-0-5p4-0-0-7p4-0-0-5p4-|-0-0-4h5-0-0-5p4-0-0-2h4-0--0-4p2-||
|---------------------------------|----------------------------------||
|---------------------------------|----------------------------------||
|
| PM--| PM--| PM--| PM--|
| S S S S Q S S S S Q S S S S Q S S S S Q
|---------------------------------|----------------------------------||
|---------------------------------|----------------------------------||
|---------------------------------|----------------------------------||
|---------------------------------|----------------------------------||
|-9-9-9-----------9-9-9-----------|-5-5-5-----------5-5-5---9\-------||
|-9-9-9-----------9-9-9-----------|-5-5-5-----------5-5-5---9\-------||


"Oooh!"
B5 Bb5 G5
E E E E E E E E E E E E E E E E E E E E E E E E
|-----------------|-----------------|-----------------|
|-----------------|-----------------|-----------------|
|-7-7-7-7-7-7-7-7-|---7-7-7-7-7-7-7-|-----------------|
|-x-x-x-x-x-x-x-x-|---x-x-x-x-x-x-x-|-5-5-5-5-5-5-5-5-|
|-5-5-5-5-5-5-5-5-|---5-5-5-5-5-5-5-|-5-5-5-5-5-5-5-5-|
|-----------------|-----------------|-5-5-5-5-5-5-5-5-|
|
| E E E E E E E E E E E E E E E E E E E E E E E E
|-----------------|-----------------|-----------------|
|-----------------|-----------------|-----------------|
|-----------------|-----------------|-----------------|
|-9-9-9-9-9-9-9-8-|---8-8-8-8-8-8-8-|-5-5-5-5-5-5-5-5-|
|-9-9-9-9-9-9-9-8-|---8-8-8-8-8-8-8-|-5-5-5-5-5-5-5-5-|
|-9-9-9-9-9-9-9-8-|---8-8-8-8-8-8-8-|-5-5-5-5-5-5-5-5-|


N.C. B5 Bb5
E E E E E E E E E E E E E E E E E H..
|-----------------|-----------------|----------||
|-----------------|-----------------|----------||
|-----------------|-7-7---7-7-7---7-|-7--------||
|-----------------|-x-x---x-x-x---x-|-x--------||
|-----------------|-5-5---5-5-5---5-|-5--------||
|-0-0-2-4-2-2-0-0-|-----------------|----------||
|
| E E E E E E E E E E E E E E E E E H..
|-----------------|-----------------|----------||
|-----------------|-----------------|----------||
|-----------------|-----------------|----------||
|-----------------|-9-9---9-9-9---9-|-8--------||
|-----------------|-9-9---9-9-9---9-|-8--------||
|-0-0-2-4-2-2-0-0-|-9-9---9-9-9---9-|-8--------||


"You'll find me in the.."
D5 E5 D5 G5 D5 A5
E E E E E E E E E E E E E E E E
||--------------------------|-------------------------|
||o-------------------------|-------------------------|
||--14-14-14-14-14-14-14-14-|-14-14-14-14-14-14-14-14-|
||---x--x--x--x--x--x--x--x-|--x--x--x--x--x--x--x--x-|
||o-12-12-12-12-12-12-12-12-|-12-12-12-12-12-12-12-12-|
||--------------------------|-------------------------|
|
| E E E E E E E E E E E E E E E E
||--------------------------|-------------------------|
||o-------------------------|-------------------------|
||--------------------------|-------------------------|
||---0--0--0--2--2--0--0--5-|--5--0--0--7--7--7--7--7-|
||o--0--0--0--2--2--0--0--5-|--5--0--0--7--7--7--7--7-|
||---0--0--0--2--2--0--0--5-|--5--0--0--7--7--7--7--7-|


D5 E5 G5
E E E E E E E E E E E E E E E E
|-------------------------|----------------------||
|-------------------------|---------------------o||
|-14-14-14-14-14-14-14-12-|-12-11-11-7-7-9-9-11--||
|--x--x--x--x--x--x--x--x-|--x--x--x-x-x-x-x--x--||
|-12-12-12-12-12-12-12-10-|-10--9--9-5-5-7-7--9-o||
|-------------------------|----------------------||
|
| E E E E E E E E E E E E E E E E
|-------------------------|----------------------||
|-------------------------|---------------------o||
|-------------------------|----------------------||
|--0--0--0--2--2--2--2--5-|--5--5--5-5-5-5-5--5--||
|--0--0--0--2--2--2--2--5-|--5--5--5-5-5-5-5--5-o||
|--0--0--0--2--2--2--2--5-|--5--5--5-5-5-5-5--5--||


E5 G5
E E E E E E E E E E E E E E E E
|-----------------|-------------------------||
|-----------------|-------------------------||
|-9-9-9-9-9-9-9-9-|-12-12-12-12-12-12-12-12-||
|-x-x-x-x-x-x-x-x-|--x--x--x--x--x--x--x--x-||
|-7-7-7-7-7-7-7-7-|-10-10-10-10-10-10-10-10-||
|-----------------|-------------------------||
|
| E E E E E E E E E E E E E E E E
|-----------------|-------------------------||
|-----------------|-------------------------||
|-----------------|-------------------------||
|-2-2-2-2-2-2-2-2-|--5--5--5--5--5--5--5--5-||
|-2-2-2-2-2-2-2-2-|--5--5--5--5--5--5--5--5-||
|-2-2-2-2-2-2-2-2-|--5--5--5--5--5--5--5--5-||


Bridge
D5 N.C. D5 N.C.
Gtr III
E E E E E E Q E E E E E E Q
||--------------------|-------------------|
||o-----10------------|-----10------------|
||----7----7----7--7--|---7----7----7--7--|
||--0--------0--------|-0--------0--------|
||o-------------------|-------------------|
||--------------------|-------------------|
|
| Gtr I
| E E E E E E Q E E E E E E Q
||--------------------|-------------------|
||o-------------------|-------------------|
||-------------12-11--|------------12-11--|
||--0-0--0-0-0--x--x--|-0-0--0-0-0--x--x--|
||o-0-0--0-0-0-10--9--|-0-0--0-0-0-10--9--|
||--0-0--0-0-0--------|-0-0--0-0-0--------|
|
| Gtr II
| E E E E E E Q E E E E E E Q
||--------------------|-------------------|
||o-------------------|-------------------|
||--------------9--7--|-------------9--7--|
||--0-0--0-0-0--x--x--|-0-0--0-0-0--x--x--|
||o-0-0--0-0-0--7--5--|-0-0--0-0-0--7--5--|
||--0-0--0-0-0--------|-0-0--0-0-0--------|


G5 N.C. A5 N.C.
E E E E E E Q E E E E E E E E
|-------------------|--------------------||
|-----10------------|-----10------------o||
|---7----7----7--7--|---7----7---7-7--7--||
|-0--------0--------|-0--------0---------||
|-------------------|-------------------o||
|-------------------|--------------------||
|
| E E E E E E Q E E E E E E E E
|-------------------|--------------------||
|-------------------|-------------------o||
|------------12-11--|------------9-9-11--||
|-5-5--5-5-5--x--x--|-7-7--7-7-7-x-x--x--||
|-5-5--5-5-5-10--9--|-7-7--7-7-7-7-7--9-o||
|-5-5--5-5-5--------|-7-7--7-7-7---------||
|
| E E E E E E Q E E E E E E E E
|-------------------|--------------------||
|-------------------|-------------------o||
|-------------9--7--|------------6-6--7--||
|-5-5--5-5-5--x--x--|-7-7--7-7-7-x-x--x--||
|-5-5--5-5-5--7--5--|-7-7--7-7-7-4-4--5-o||
|-5-5--5-5-5--------|-7-7--7-7-7---------||


"Don't forget yourselves.."
D5 N.C. D5 N.C.
Gtr I
PM--------------| PM--------------|
S S S S S S S S S S E Q S S S S S S S S S S E Q
||-----------------------------|----------------------------|
||o----------------------------|----------------------------|
||-----------------------6--7--|----------------------6--7--|
||-----------------------x--x--|----------------------x--x--|
||o-0-0-0-0-0-0-0-0-0----4--5--|-0-0-0-0-0-0-0-0-0----4--5--|
||--0-0-0-0-0-0-0-0-0----------|-0-0-0-0-0-0-0-0-0----------|
|
| Gtr II
| PM--------------| PM--------------|
| S S S S S S S S S S E Q S S S S S S S S S S E Q
||-----------------------------|----------------------------|
||o----------------------------|----------------------------|
||----------------------12-11--|---------------------12-11--|
||-----------------------x--x--|----------------------x--x--|
||o-0-0-0-0-0-0-0-0-0---10--9--|-0-0-0-0-0-0-0-0-0---10--9--|
||--0-0-0-0-0-0-0-0-0----------|-0-0-0-0-0-0-0-0-0----------|


B5 N.C. G5
PM--------------| PM------| PM PM|
S S S S S S S S S S E Q S S E S S Q S S S S E
|----------------------------|-------------------------||
|----------------------------|------------------------o||
|----------------------6--7--|-------------------------||
|----------------------x--x--|-------------------------||
|-9-9-9-9-9-9-9-9-9----4--5--|-5-5---5-5----5---5-5---o||
|-9-9-9-9-9-9-9-9-9----------|-5-5---5-5----5---5-5----||
|
| PM--------------| PM------| PM PM|
| S S S S S S S S S S E Q S S E S S Q S S S S E
|----------------------------|-------------------------||
|----------------------------|------------------------o||
|---------------------12-11--|-------------------------||
|----------------------x--x--|-------------------------||
|-9-9-9-9-9-9-9-9-9---10--9--|-5-5---5-5----5---5-5---o||
|-9-9-9-9-9-9-9-9-9----------|-5-5---5-5----5---5-5----||


"You'll find me in the.."
N.C.
W W
|-----------------|-----------------|
|-----------------|-----------------|
|-----------------|-----------------|
|-----------------|-----------------|
|-----------------|-----------------|
|-----------------|-----------------|
|
| E E E E E E E E E E E E E E E E
|-----------------|-----------------|
|-----------------|-----------------|
|-----------------|-----------------|
|-----------------|-----------------|
|-----------------|-----------------|
|-0-0-0-2-2-0-0-5-|-5-0-0-7-7-7-7-7-|


H.. E E E E E E E E E
|--------------------|------------------------|
|--------------------|------------------------|
|-----------------12-|-12-11-11-7-7-9--9--11--|
|------------------x-|--x--x--x-x-x-x--x---x--|
|-----------------10-|-10--9--9-5-5-7--7---9--|
|--------------------|------------------------|
|
| E E E E E E E E E E E E E E Q
|--------------------|------------------------|
|--------------------|------------------------|
|--------------------|------------------------|
|--------------------|------------------------|
|--------------------|------------------------|
|-0---0-0-2-2-2-2--5-|--5--5--5-5-5-5-17\-----|


D5 E5 D5 G5 D5 A5
E E E E E E E E E E E E E E E E
||--------------------------|-------------------------|
||o-------------------------|-------------------------|
||--14-14-14-14-14-14-14-14-|-14-14-14-14-14-14-14-14-|
||---x--x--x--x--x--x--x--x-|--x--x--x--x--x--x--x--x-|
||o-12-12-12-12-12-12-12-12-|-12-12-12-12-12-12-12-12-|
||--------------------------|-------------------------|
|
| E E E E E E E E E E E E E E E E
||--------------------------|-------------------------|
||o-------------------------|-------------------------|
||--------------------------|-------------------------|
||---0--0--0--2--2--0--0--5-|--5--0--0--7--7--7--7--7-|
||o--0--0--0--2--2--0--0--5-|--5--0--0--7--7--7--7--7-|
||---0--0--0--2--2--0--0--5-|--5--0--0--7--7--7--7--7-|


D5 E5 G5
E E E E E E E E E E E E E E E E 3x
|-------------------------|----------------------||
|-------------------------|---------------------o||
|-14-14-14-14-14-14-14-12-|-12-11-11-7-7-9-9-11--||
|--x--x--x--x--x--x--x--x-|--x--x--x-x-x-x-x--x--||
|-12-12-12-12-12-12-12-10-|-10--9--9-5-5-7-7--9-o||
|-------------------------|----------------------||
|
| E E E E E E E E E E E E E E E E 3x
|-------------------------|----------------------||
|-------------------------|---------------------o||
|-------------------------|----------------------||
|--0--0--0--2--2--2--2--5-|--5--5--5-5-5-5-5--5--||
|--0--0--0--2--2--2--2--5-|--5--5--5-5-5-5-5--5-o||
|--0--0--0--2--2--2--2--5-|--5--5--5-5-5-5-5--5--||


E5 G5 E5 G5
E E E E E E E E E E E E E E E E E E E E E E E E W
|-----------------|-------------------------|-----------------|-------||
|-----------------|-------------------------|-----------------|-------||
|-9-9-9-9-9-9-9-9-|-12-12-12-12-12-12-12-12-|-9-9-9-9-9-9-9-9-|-12----||
|-x-x-x-x-x-x-x-x-|--x--x--x--x--x--x--x--x-|-x-x-x-x-x-x-x-x-|--x----||
|-7-7-7-7-7-7-7-7-|-10-10-10-10-10-10-10-10-|-7-7-7-7-7-7-7-7-|-10----||
|-----------------|-------------------------|-----------------|-------||
|
| E E E E E E E E E E E E E E E E E E E E E E E E W
|-----------------|-------------------------|-----------------|-------||
|-----------------|-------------------------|-----------------|-------||
|-----------------|-------------------------|-----------------|-------||
|-2-2-2-2-2-2-2-2-|--5--5--5--5--5--5--5--5-|-2-2-2-2-2-2-2-2-|--5----||
|-2-2-2-2-2-2-2-2-|--5--5--5--5--5--5--5--5-|-2-2-2-2-2-2-2-2-|--5----||
|-2-2-2-2-2-2-2-2-|--5--5--5--5--5--5--5--5-|-2-2-2-2-2-2-2-2-|--5----||


Outro Breakdown
D5
Gtrs I, II
PM----------------------| PM------| PM|
S S S S S S S S S S E S S E E E E E S S E S S E
||------------------------------|---------------------|
||o-----------------------------|---------------------|
||------------------------------|---------------------|
||------------------------------|---------------------|
||o-0-0-0-0-0-0-0-0-0-0---0-0---|---0-0-0-0-0---0-0---|
||--0-0-0-0-0-0-0-0-0-0---0-0---|---0-0-0-0-0---0-0---|


PM----------------------| PM------| PM------|
S S S S S S S S S S E S S E S S E S S E E S E S E
|-----------------------------|------------------------||
|-----------------------------|-----------------------o||
|-----------------------------|------------------------||
|-----------------------------|------------------------||
|-0-0-0-0-0-0-0-0-0-0---0-0---|-0-0---0-0---0-0-0-0-0-o||
|-0-0-0-0-0-0-0-0-0-0---0-0---|-0-0---0-0---0-0-0-0-0--||



Duration Legend
---------------
W - whole; H - half; Q - quarter; E - 8th; S - 16th; T - 32nd; X - 64th; a - acciaccatura
+ - note tied to previous; . - note dotted; .. - note double dotted
Uncapitalized letters represent notes that are staccato (1/2 duration)
Irregular groupings are notated above the duration line
Duration letters will always appear directly above the note/fret number it represents the
duration for. Duration letters with no fret number below them represent rests. Multi-
bar rests are notated in the form Wxn, where n is the number of bars to rest for. Low
melody durations appear below the staff

Tablature Legend
----------------
h - hammer-on
p - pull-off
b - bend
pb - pre-bend
r - bend release (if no number after the r, then release immediately)
/\ - slide into or out of (from/to "nowhere")
s - legato slide
S - shift slide
- natural harmonic
[n] - artificial harmonic
n(n) - tapped harmonic
~ - vibrato
tr - trill
T - tap
TP - trem. picking
PM - palm muting
\n/ - tremolo bar dip; n = amount to dip
\n - tremolo bar down
n/ - tremolo bar up
/n\ - tremolo bar inverted dip
= - hold bend; also acts as connecting device for hammers/pulls
- volume swell (louder/softer)
x - on rhythm slash represents muted slash
o - on rhythm slash represents single note slash

Misc Legend
-----------
| - bar
|| - double bar
||o - repeat start
o|| - repeat end
*| - double bar (ending)
: - bar (freetime)
$ - Segno
& - Coda
Tempo markers - = BPM(8/16=s8/s16), where s8 = swing 8ths, s16 = swing 16ths


** Generated using Power Tab Editor by Brad Larsen: The Official Power Tab Web Site
Tunning: Drop C (C G C F A D)
I found this song on youtube.com for further info but in tabulature
this is my first one this. this is pretty much right! better
than the other ones.

to contact me its stefangoins@yahoo.com -enjoy!







D|---------------------------------------------------------------------|
A|---------------------------------------------------------------------|
F|---------------------------------------------------------------------| x2
C|-00000000-00-00--0-0-0--00-00--99999999-99-99--55-55-55--------------|
G|-00000000-00-00--0-0-0--00-00--99999999-99-99--55-55-55----4---------|
C|-00000000-00-00--0-0-0--00-00--99999999-99-99--55-55-55-5h7----------|

D|-----------------------|
A|-----------------------|
F|-----------------------|
C|--0----9------5--------| x2
G|--0----9------5--------|
C|--0----9------5--------|

D|----------------------------------------|
A|----------------------------------------|
F|----------------------------------------|
C|--9------8------5-----------------------| x2 2nd time don't play 0024220
G|--9-x6---8-x8---5x8---------------------|
C|--9------8------5------0-0-2-4-2-2-4-0--|


D|----------------------------------------|
A|----------------------------------------|
F|----------------------------------------|
C|-0-0-0-2-0-0-0-5-0-0-0-7-7-7-7-7-7------|\
G|-0-0-0-2-0-0-0-5-0-0-0-7-7-7-7-7-7------| \
C|-0 0-0-2-0-0-0-5-0-0-0-7-7-7-7-7-7------| \
\ x2
D|----------------------------------------| /
A|----------------------------------------| /
F|----------------------------------------| /
C|-0-0-0-2-0-0-5-5-5-5-5-5----------------|/
G|-0-0-0-2-0-0-5-5-5-5-5-5----------------|
C|-0-0-0-2-0-0-5-5-5-5-5-5----------------|


D|----------------------------|
A|----------------------------|
F|----------------------------|
C|-2----5---------------------|
G|-2-x8-5-x2------------------|
C|-2----5-------------~-------|


D|---------------------------------------------------------------------|
A|---------------------------------------------------------------------|
F|---------------------------------------------------------------------| x2
C|-00000000-00-00--0-0-0--00-00--99999999-99-99--55-55-55--------------|
G|-00000000-00-00--0-0-0--00-00--99999999-99-99--55-55-55----4---------|
C|-00000000-00-00--0-0-0--00-00--99999999-99-99--55-55-55-5h7----------|

pickslide!

D|-----------------------|
A|-----------------------|
F|-----------------------|
C|--0----9------5--------| x2
G|--0----9------5--------|
C|--0----9------5--------|

D|--------------------------------------------------------------------|
A|--------------------------------------------------------------------|
F|--------------------------------------------------------------------|
C|-0-0----4h5h4-----4h5h4-----7h4--0-0-4h5-----4h5-----4h5-----0h2----|x2
G|--------------------------------------------------------------------|
C|--------------------------------------------------------------------|


D|----------------------------------------|
A|----------------------------------------|
F|----------------------------------------|
C|--9------8------5-----------------------|
G|--9-x6---8-x8---5x8---------------------|
C|--9------8------5------0-0-2-4-2-2-4-0--|


D|----------------------------------------|
A|----------------------------------------|
F|----------------------------------------|
C|--99-9-99-9--8--------------------------|
G|--99-9-99-9--8--------------------------|
C|--99-9-99-9--8--------------------------|



D|----------------------------------------|
A|----------------------------------------|
F|----------------------------------------|
C|-0-0-0-2-0-0-0-5-0-0-0-7-7-7-7-7-7------|\
G|-0-0-0-2-0-0-0-5-0-0-0-7-7-7-7-7-7------| \
C|-0 0-0-2-0-0-0-5-0-0-0-7-7-7-7-7-7------| \
\ x2
D|----------------------------------------| /
A|----------------------------------------| /
F|----------------------------------------| /
C|-0-0-0-2-0-0-5-5-5-5-5-5----------------|/
G|-0-0-0-2-0-0-5-5-5-5-5-5----------------|
C|-0-0-0-2-0-0-5-5-5-5-5-5----------------|


D|----------------------------|
A|----------------------------|
F|----------------------------|
C|-2----5---------------------|
G|-2-x8-5-x8------------------|
C|-2----5---------------------|


D|----------------------------------------------------------|
A|----------------------------------------------------------|
F|----------12-11--------|--------------------------7----9--|
C|----0------x--x----x2--|--5------12-11-----7-7-7--x----x--|x2
G|----0-x4--10--9--------|--5-x8----x--x-----7-7-7--5----7--|
C|----0------------------|--5------10--9-----7-7-7----------|


D|----------------------------------------------------------|
A|----------------------------------------------------------|
F|----------12-11---------|---------------------------------|
C|----0------x--x----x2---|--5------12-11-----7-7-7---------|x2
G|----0-x8--10--9---------|--5-x8----x--x-----7-7-7---------|
C|----0-------------------|--5------10--9-----7-7-7---------|

D|----------------------------------------|
A|----------------------------------------|
F|----------------------------------------|
C|----------------------------------------|
G|----------------------------------------|
C|-0 0-0-2-0-0-0-5-0-0-0-7-7-7-7-7-7------|

D|----------------------------------------|
A|----------------------------------------|
F|----------------------------------------|
C|----------------------------------------|
G|----------------------------------------|
C|-0 0-0-2-2-2-2-2-5-5-5-5-5-5------------|

D|----------------------------------------|
A|----------------------------------------|
F|----------------------------------------|
C|-0-0-0-2-0-0-0-5-0-0-0-7-7-7-7-7-7------|\
G|-0-0-0-2-0-0-0-5-0-0-0-7-7-7-7-7-7------| \
C|-0 0-0-2-0-0-0-5-0-0-0-7-7-7-7-7-7------| \
\ x3
D|----------------------------------------| /
A|----------------------------------------| /
F|----------------------------------------| /
C|-0-0-0-2-0-0-5-5-5-5-5-5----------------|/
G|-0-0-0-2-0-0-5-5-5-5-5-5----------------|
C|-0-0-0-2-0-0-5-5-5-5-5-5----------------|

D|------------------------------------|
A|------------------------------------|
F|------------------------------------|
C|-2----5------2-----5---hold end-----|
G|-2-x8-5-x8---2-x8--5----------------|
C|-2----5------2-----5----------------|

D|---------------------------------------------------------------------|
A|---------------------------------------------------------------------|
F|---------------------------------------------------------------------| x2
C|-00000000-00-00--0-0-0--00-00--00000000-00-00--00-00-00--------------|
G|-00000000-00-00--0-0-0--00-00--00000000-00-00--00-00-00--------------|
C|-00000000-00-00--0-0-0--00-00--00000000-00-00--00-00-00--------------|









































Song info
The Downfall Of Us All
A Day to Remember
2001
  • Rock
  • Alternative Rock
  • Hardcore
  • Punk
Alternative tracks
Similar songs
2 2 5 - Radiohead
Crash - Primitives
Hier Kommt Alex - Die Toten Hosen
The End Has No End - The Strokes

Hi! Hope you enjoy backing track experience.
If you want to help us in the development of the project, feel free to donate!