Are You Ready - AC/DC
00:00 / 00:00
Tabs and lyrics
Tunning: Standard (E A D G B e)
Are You Ready Tab by Ac Dc, www.Ultimate-Guitar.Com

Tuning: Standard

e|--------0---------0----------0--------0------0-------0----|
B|----------3---------3------3---3---3---3---3---3---3---3--|
G|-----2----------2-----------------------------------------|
D|---0----------0-------------------------------------------|
A|------------------------3--------3--------2------2--------|
E|----------------------------------------------------------|

e|--------0---------0----|
B|------3---3-----3---3--|
G|----------------------.|
D|----------------------.|
A|----3--------3---------|
E|-----------------------|

e|--------0---------0---------0-------0-------0-------0-------0-------0-------0-----|
B|----------3---------3-----3---3---3---3---3---3---3---3---3---3---3---3---3---3---|
G|-----2---------2------------------------------------------------------------------|
D|---0---------0--------------------------------------------------------------------|
A|----------------------------------------------------------------------------------|
E|-----------------------2--------2-------3-------3-------1-------1-------1---------|
guitars one and two

e|----------------------------------------------------------------------------------|
B|----------------------------------------------------------------------------------|
G|----------------------------------------------------------------------------------|
D|---7------------------------------------------------------------------------------|
A|---5-------------------5----------------5---------------3----------------3--------|
E|-----------------------2----------------3---------------1----------------1--------|

e|-------------------------------3--|
B|-------------------------------3--|
G|---7--7--7--5--7--7--------5---0-.|
D|---7--7--7--5--7--7----3---5---0-.|
A|---5--5--5--3--5--5----3---3---x--|
E|-----------------------1-------3--|

repeat the guitars one and two part

e|-------------------------------------------------------------|
B|-------------------------------------------------------------|
G|------------------------------------------------------------.|
D|---7-7-7-5-5-7-7-5-5-5-5-5-5-5-5-5-5-5-5-5-5-5-5-5-5-5-5-5--.|
A|---5-5-5-3-3-5-5-3-3-3-2-2-3-3-2-2-2-0-0-2-2-3-3-3-2-2-3-3---|
E|-------------------------------------------------------------|

That's it.
Tunning: Standard (E A D G B e)
Ac/Dc Are You Ready
Album:The Razor's Edge(1990)
Tab by Voytazz

[Intro]
e|--------0-----------0-----|--------0-----------0-----|
B|-----------3-----------3--|-----3-----3-----3-----3--|
G|-----2-----------2--------|--------------------------|
D|--0-----------0-----------|--------------------------|
A|--------------------------|--3-----------3-----------|
E|--------------------------|--------------------------|

e|--------0-----------0-----|--------0-----------0-----|
B|-----3-----3-----3-----3--|-----3-----3-----3-----3--|
G|--------------------------|--------------------------|
D|--------------------------|--------------------------|
A|--2-----------2-----------|--3-----------3-----------|
E|--------------------------|--------------------------|

e|--------0-----------0-----|--------0-----------0-----|
B|-----------3-----------3--|-----3-----3-----3-----3--|
G|-----2-----------2--------|--------------------------|
D|--0-----------0-----------|--------------------------|
A|--------------------------|--3-----------3-----------|
E|--------------------------|--------------------------|

e|--------0-----------0-----|--------0-----------0-----|
B|-----3-----3-----3-----3--|-----3-----3-----3-----3--|
G|--------------------------|--------------------------|
D|--------------------------|--------------------------|
A|--2-----------2-----------|--3-----------3-----------|
E|--------------------------|--------------------------|

e|--------0-----------0-----|--------0-----------0-----|
B|-----------3-----------3--|-----3-----3-----3-----3--|
G|-----2-----------2--------|--------------------------|
D|--0-----------0-----------|--------------------------|
A|--------------------------|--------------------------|
E|--------------------------|--2-----------2-----------|

e|--------0-----------0-----|--------0-----------0-----|
B|-----3-----3-----3-----3--|-----3-----3-----3-----3--|
G|--------------------------|--------------------------|
D|--------------------------|--------------------------|
A|--------------------------|--------------------------|
E|--3-----------3-----------|--1-----------1-----------|

e|--------0-------------|------------------|
B|-----3-----3----------|------------------|
G|----------------------|------------------|
D|----------------------|------------------|
A|----------------------|------------------|
E|--1-------------------|------------------|

[Intro 2nd guitar]
e|--|--|--|--|--|--|--|--|-------------------|-------------------|
B|--|--|--|--|--|--|--|--|-------------------|-------------------|
G|--|--|--|--|--|--|--|--|-------------------|-------------------|
D|--|--|--|--|--|--|--|--|--7----------------|-------------------|
A|--|--|--|--|--|--|--|--|--5----------------|--5----------------|
E|--|--|--|--|--|--|--|--|-------------------|--2----------------|

e|-------------------|-------------------|-------------------|
B|-------------------|-------------------|-------------------|
G|-------------------|-------------------|-------------------|
D|-------------------|-------------------|-------------------|
A|--5----------------|--3----------------|--3----------------|
E|--3----------------|--1----------------|--1----------------|

[verse riff]
e|-------------------------|---------------------|
B|-------------------------|---------------------|
G|--7--7--7--5--5--7----7--|-----------5---------|
D|--7--7--7--5--5--7----7--|------3----5----5----|
A|--5--5--5--3--3--5----5--|------3----3----5----|
E|-------------------------|------1---------3----|

e|-------------------------|---------------------|
B|-------------------------|---------------------|
G|--7--7--7--5--5--7----7--|-----------5---------|
D|--7--7--7--5--5--7----7--|------3----5----5----|
A|--5--5--5--3--3--5----5--|------3----3----5----|
E|-------------------------|------1---------3----|

[Pre-chorus](2nd guitar as intro)
[who all need it who]
e|--------0-----------0-----|--------0-----------0-----|
B|-----------3-----------3--|-----3-----3-----3-----3--|
G|-----2-----------2--------|--------------------------|
D|--0-----------0-----------|--------------------------|
A|--------------------------|--------------------------|
E|--------------------------|--2-----------2-----------|

[who all need it you]
e|--------0-----------0-----|--------0-----------0-----|
B|-----3-----3-----3-----3--|-----3-----3-----3-----3--|
G|--------------------------|--------------------------|
D|--------------------------|--------------------------|
A|--------------------------|--------------------------|
E|--3-----------3-----------|--1-----------1-----------|

[who all need it who all need it]
e|--------0-----------0-----|--------0-----------0-----|
B|-----------3-----------3--|-----3-----3-----3-----3--|
G|-----2-----------2--------|--------------------------|
D|--0-----------0-----------|--------------------------|
A|--------------------------|--------------------------|
E|--------------------------|--2-----------2-----------|

[you all breathe it we all need it]
e|--------0-----------0-----|--------0-----------0-----|
B|-----3-----3-----3-----3--|-----3-----3-----3-----3--|
G|--------------------------|--------------------------|
D|--------------------------|--------------------------|
A|--------------------------|--------------------------|
E|--3-----------3-----------|--1-----------1-----------|

[Chorus]
[ready for a good time]
e|------------------------|------------------------|
B|------------------------|------------------------|
G|------------------------|------------------------|
D|--7--7--7--5--5--7------|--5--5--5--5--5--5------|
A|--5--5--5--3--3--5------|--3--3--3--2--2--3------|
E|------------------------|------------------------|

ready for a night line
e|------------------------|------------------------|
B|------------------------|------------------------|
G|------------------------|------------------------|
D|--0--0--0--0--0--0------|--5--5--5--5--5--5------|
A|--2--2--2--0--0--2------|--3--3--3--2--2--3------|
E|------------------------|------------------------|

The lick Angus play's after the 1st chorus
e|-10^^^---------------------------------------------|
B|-10^^^-12^^-12^^10^^-------------------------------|
G|-------12^^-12^^10^^--12-bend 1/2 step--12/ slide--|
D|---------------------------------------------------|
A|---------------------------------------------------|
E|---------------------------------------------------|

[Solo]
P.H__________ P.H___
e|-----------------------------|--------------------------------------|
B|-13-B-13-R/B---13-10---------|--------------------------------------|
G|---------------------12-10---|------0-0-H-1-------------------------|
D|---------------------------12|--0-3-----------5-B-3---------3-3-1-\-|
A|-----------------------------|------------------------5-3-5---------|
E|-0*--------------------------|--------------------------------------|
* drop tuning to D

^^^^^ ^^^^^ ^^^^^ ^^
e|---------------------------------------|--10---10---------------
B|-12-B-10--12--12-B-10--12--12-B-10--12-|-----10---13---13-13----
G|-12-B-10--12--12-B-10--12--12-B-10--12-|------------------------
D|---------------------------------------|------------------------
A|---------------------------------------|------------------------
E|---------------------------------------|------------------------

^^^^^^^^^^^^^^^^^^^^^^^^^ U.B
e|----------------------------------10-----------------------|
B|-12--12--12--12--12--12-----10-13----13----10--------------|
G|-------------------------12----------------12----10--------|
D|------------------------------------------------------12---|
A|-----------------------------------------------------------|
E|-----------------------------------------------------------|

e|-13--13--10----10---------------------------------------|
B|------------13-----13-10----13---10---------------------|
G|-------------------------12-----------------------------|
D|--------------------------------------12--10--12-10-10\-|
A|--------------------------------------------------------|
E|-0------------------------------------------------------|

^^^
e|------------|-----------------------------|-------------------------|
B|------------|-----------------------------|-------------------------|
G|---10----10-|-10--------------------------|-------------------------|
D|-12---12----|----12--10-------------------|-----------------10-12-12|
A|------------|------------12-\-11-\10-\8-B-|---------10-12-12--------|
E|------------|-----------------------------|-10-12-12----------------|

e|----------------------------|
B|----------------------------|
G|-------------12-B---10-12---|
D|-10-12-12-10----------------|
A|----------------------------|
E|----------------------------|

************************************

| / Slide up
| \ Slide down
| * Natural harmonic
| / slide


************************************
Tunning: Standard (E A D G B e)
ARE YOU READY
AC/DC
Tabbed by masulprizio

Tuning- Standard
Bend- b
Hammeron- h
Pulloff- p
Palm mute- P.M.
Unison bend- U.B.
Slide- \
Pinched harmonics- []

Intro (guitar 1)
E------0---------0----|------0---------0----|------0--------0---|
B---------------------|----3---3-----3---3--|----3---3----3---3-|
G---2----2----2----2--|---------------------|-------------------|
D-0---------0---------|---------------------|-------------------|
A---------------------|-3---------3---------|-2---------2-------|
E---------------------|---------------------|-------------------|

E------0--------0---|
B----3---3----3---3-|
G-------------------|
D-------------------| x2
A-3--------3--------|
E-------------------|

E-----0-------0---|------0---------0---|-----0--------0---|
B---2---2---2---2-|----3---3-----3---3-|---3---3----3---3-|
G-0-------0-------|--------------------|------------------|
D-----------------|--------------------|------------------|
A-----------------|--------------------|------------------|
E-----------------|-2---------2--------|-3-------3--------|
|
Guitar 2 |
E-----------------|--------------------|------------------|
B-----------------|--------------------|------------------|
G-----------------|--------------------|------------------|
D-0~~~~~~~~~~~~~~~|-0~~~~~~~~~~~~~~~~~~|------------------|
A-----------------|--------------------|------------------|
E-----------------|--------------------|-3~~~~~~~~~~~~~~~~|

Guitar 1
E------0---------0----|------0----|
B----3---3-----3---3--|----3---3--|
G---------------------|-----------|
D---------------------|-----------|
A---------------------|-----------|
E-1---------1---------|-1---------|
|
Guitar 2 |
E---------------------|-----------|
B---------------------|-----------|
G---------------------|-----------|
D---------------------|-----------|
A---------------------|-----------|
E-1~~~~~~~~~~~~~~~~~~~|-1~~~~~~~~~|

Verse (guitars 1 and 2)
E----------------------------------------|
B----------------------------------------|
G-7--7----5---5----7----7----10---5------|
D-7--7----5---5----7----7----10---5---5--| x9
A-5--5----3---3----5----5----8----3---5--|
E-------------------------------------3--|

Chorus (guitars 1 and 2)
E---------0-----------|--------0-----------|-------0-----------|
B------3-------3---3--|------3-------3---3-|-----3-------3---3-|
G---2------------2----|----2-----------2---|---2-----------2---|
D-0---------0---------|--------------------|-------------------|
A---------------------|--------------------|-------------------|
E---------------------|-2---------2--------|-3--------3--------|

E--------0-----------|
B------3-------3---3-|
G----2-----------2---|
D--------------------| x2
A--------------------|
E-1--------1---------|

E----------------------|--------------------|
B----------------------|--------------------|
G-7--7--7---5---5---7--|-5--5--5---5--5---5-|
D-7--7--7---5---5---7--|-5--5--5---5--5---5-|
A-5--5--5---3---3---5--|-3--3--3---2--2---3-|
E----------------------|--------------------|

E---------------------|---------------------|
B---------------------|---------------------|
G-5--5--5----------5--|-5--5--5---5--5---5--|
D-5--5--5---4--4---5--|-5--5--5---5--5---5--| x2
A-2--2--2---0--0---2--|-3--3--3---2--2---3--|
E---------------------|---------------------|

Solo 1 (guitar 1)
E-------------------------------|------------------------------|
B-13----12--12--10-----13---12--|-----13---12---12---10-----13-|
G-14----12--12--10-----14---12--|-12--14---12---12---10-----14-|
D------------------12-----------|-----------------------12-----|
A-------------------------------|------------------------------|
E-------------------------------|------------------------------|
|
(Guitar 2) |
E----------------------------------------|
B----------------------------------------|
G-7--7----5---5----7----7----10---5------|
D-7--7----5---5----7----7----10---5---5--| x2
A-5--5----3---3----5----5----8----3---5--|
E-------------------------------------3--|




Verse (guitars 1 and 2)
E----------------------------------------|
B----------------------------------------|
G-7--7----5---5----7----7----10---5------|
D-7--7----5---5----7----7----10---5---5--| x4
A-5--5----3---3----5----5----8----3---5--|
E-------------------------------------3--|

Chorus (guitars 1 and 2)
E---------0-----------|--------0-----------|-------0-----------|
B------3-------3---3--|------3-------3---3-|-----3-------3---3-|
G---2------------2----|----2-----------2---|---2-----------2---|
D-0---------0---------|--------------------|-------------------|
A---------------------|--------------------|-------------------|
E---------------------|-2---------2--------|-3--------3--------|

E--------0-----------|
B------3-------3---3-|
G----2-----------2---|
D--------------------|
A--------------------|
E-1--------1---------|

E----------------------|--------------------|
B----------------------|--------------------|
G-7--7--7---5---5---7--|-5--5--5---5--5---5-|
D-7--7--7---5---5---7--|-5--5--5---5--5---5-|
A-5--5--5---3---3---5--|-3--3--3---2--2---3-|
E----------------------|--------------------|

E---------------------|---------------------|
B---------------------|---------------------|
G-5--5--5----------5--|-5--5--5---5--5---5--|
D-5--5--5---4--4---5--|-5--5--5---5--5---5--| x2
A-2--2--2---0--0---2--|-3--3--3---2--2---3--|
E---------------------|---------------------|

Solo 2 (guitar 1)/(Guitar 2- verse riff x4)
E--------------------------------------|--------------------------------|
B---------13b--13b--13-----------------|--------------------------------|
G----------------------12--12--10------|--------------------------------|
D---------------------------------12/--|-3-5b-5-3--5b--5-3----------[3]-|
A--------------------------------------|-------------------5-5-5-[5]----|
E-0*-----------------------------------|--------------------------------|
*slow down note one octave

E---------------------------------|-10----10-----10-10-|
B-12--12--10--12--12--10--12--12--|----10----13b-------|
G-12b-12--10--12b-12--10--12b-12b-|--------------------|
D---------------------------------|--------------------|
A---------------------------------|--------------------|
E---------------------------------|--------------------|

E-----------------|--------10----------------------|
B-12--12--12--12--|-----------13--12--12-----------|
G-12b-12b-12b-12b-|-12-12b--------12b-12----10-----|
D-----------------|----------------------------12b-|
A-----------------|--------------------------------|
E-----------------|--------------------------------|

E-13b-10---------------------------|-----------|-----------------|
B-------13-10-12b-12---------------|-----------|-----------------|
G-------------------10--12-10------|-----------|------10-----[10]|
D---------------------12-----12-10-|-12-10-10/-|-12-12--12-12----|
A----------------------------------|-----------|-----------------|
E----------------------------------|-----------|-----------------|

Guitar 2
E----------------------------------|-----------|-3~~~~~~~~~~~~~~~|
B----------------------------------|-3~~~~~~~~~|-0~~~~~~~~~~~~~~~|
G-7~~~~~~~~~~~~~~~~~~~~~~~~~~~~~~~~|-2~~~~~~~~~|-0~~~~~~~~~~~~~~~|
D-5~~~~~~~~~~~~~~~~~~~~~~~~~~~~~~~~|-0~~~~~~~~~|-0~~~~~~~~~~~~~~~|
A-5~~~~~~~~~~~~~~~~~~~~~~~~~~~~~~~~|-0~~~~~~~~~|-0~~~~~~~~~~~~~~~|
E----------------------------------|-2~~~~~~~~~|-3~~~~~~~~~~~~~~~|

Guitar 1
E----------------------|----------------------|----------------------------|
B----------------------|----------------------|--------------------13---13-|
G-[12b]----------------|----------------------|----10-12b-12-10-12b--12b---|
D----------------------|-------10-10-12----10-|-12-------------------------|
A-------12-11-10-------|-12-12----------12----|----------------------------|
E----------------13-10-|----------------------|----------------------------|

Guitar 2
E----------------------|----------------------|----------------------------|
B-3~~~~~~~~~~~~~~~~~~~~|----------------------|-3~~~~~~~~~~~~~~~~~~~~~~~~~~|
G-2~~~~~~~~~~~~~~~~~~~~|-7~~~~~~~~~~~~~~~~~~~~|-2~~~~~~~~~~~~~~~~~~~~~~~~~~|
D-0~~~~~~~~~~~~~~~~~~~~|-5~~~~~~~~~~~~~~~~~~~~|-0~~~~~~~~~~~~~~~~~~~~~~~~~~|
A-0~~~~~~~~~~~~~~~~~~~~|-5~~~~~~~~~~~~~~~~~~~~|-0~~~~~~~~~~~~~~~~~~~~~~~~~~|
E-1~~~~~~~~~~~~~~~~~~~~|----------------------|-2~~~~~~~~~~~~~~~~~~~~~~~~~~|

Guitar 1
E------------------------|-13-15b-15b-|
B-----13--------------15-|------------|
G-12b----12b--15--12-----|------------|
D------------------------|------------|
A------------------------|------------|
E------------------------|------------|

Guitar 2
E------------------------|------------|
B-3~~~~~~~~~~~~~~~~~~~~~~|-3~~~~~~~~~~|
G-0~~~~~~~~~~~~~~~~~~~~~~|-2~~~~~~~~~~|
D-0~~~~~~~~~~~~~~~~~~~~~~|-0~~~~~~~~~~|
A-0~~~~~~~~~~~~~~~~~~~~~~|-0~~~~~~~~~~|
E-3~~~~~~~~~~~~~~~~~~~~~~|-1~~~~~~~~~~|

Chorus (guitars 1 and 2)

E----------------------|--------------------|
B----------------------|--------------------|
G-7--7--7---5---5---7--|-5--5--5---5--5---5-|
D-7--7--7---5---5---7--|-5--5--5---5--5---5-|
A-5--5--5---3---3---5--|-3--3--3---2--2---3-|
E----------------------|--------------------|

E---------------------|---------------------|
B---------------------|---------------------|
G-5--5--5----------5--|-5--5--5---5--5---5--|
D-5--5--5---4--4---5--|-5--5--5---5--5---5--|
A-2--2--2---0--0---2--|-3--3--3---2--2---3--|
E---------------------|---------------------|


(Guitar 2)
E----------------------------------------|
B----------------------------------------|
G-7--7----5---5----7----7----10---5------|
D-7--7----5---5----7----7----10---5---5--|
A-5--5----3---3----5----5----8----3---5--|
E-------------------------------------3--|

Guitar 1
E----------------------------------------|
B---------------------13b--13--10--------|
G---------------------------------12b-12-|
D----------------------------------------|
A----------------------------------------|
E----------------------------------------|

Guitar 2
E----------------------------------------|
B----------------------------------------|
G-7--7----5---5----7----7----10---5------|
D-7--7----5---5----7----7----10---5---5--|
A-5--5----3---3----5----5----8----3---5--|
E-------------------------------------3--|


Guitar 1
E----------------------------------------|
B----------------------10-13---10-13-13--|
G-------------------12b-----12b--------12|
D----------------------------------------|
A----------------------------------------|
E----------------------------------------|

Outro (Guitars 1 and 2)
E----------------------------------------|
B----------------------------------------|
G-7--7----5---5----7----7----10---5------|
D-7--7----5---5----7----7----10---5---5--| x4
A-5--5----3---3----5----5----8----3---5--|
E-------------------------------------3--|


Guitar 2
E----------------------------------------|
B----------------------------------------|
G-7--7----5---5----7----7----10---5------|
D-7--7----5---5----7----7----10---5---5--|
A-5--5----3---3----5----5----8----3---5--|
E-------------------------------------3--|

Guitar 1
E---------------------13b--13--10--13-10-|
B----------------------------------------|
G----------------------------------------|
D----------------------------------------|
A----------------------------------------|
E----------------------------------------|


E-----------------------------------------|
B-13b--13--10-----------------------------|
G--------------13-12-10-----12--10--------|
D------------------------12---------12-12-|
A-----------------------------------------|
E-----------------------------------------|

Guitars 1 and 2
E---|
B---|
G-7-|
D-7-|
A-5-|
E---|

ENJOY!















Song info
Are You Ready
AC/DC
2001
  • Rock
  • Hard Rock
Similar songs
Crimson And Clover - Joan Jett
Caroline - Status Quo
Me And My Wine - Def Leppard
The One I Love - R.E.M.

Hi! Hope you enjoy backing track experience.
If you want to help us in the development of the project, feel free to donate!