Back In Black - AC/DC
00:00 / 00:00
Tabs and lyrics
Tunning: Standard (E A D G B e)
Back In Black Live
Ac/Dc
Ac/Dc Live

e|----------------------------------------------------------------|
B|----------------------------------------------------------------|
G|----------------------------------------------------------------|
D|----------------------------------------------------------------|
A|----------------------------------------------------------------|
E|-12\\-----------------------------------------------------------|


Main Riff
E|------------------|3p0-----------|------------------|-----------------|
B|-----3-3-3--------|----3p0-------|-----3-3-3--------|-----------------|
G|-----2-2-2--2-2-2-|--------2^-2p0|-----2-2-2--2-2-2-|-----------------|
D|--2--0-0-0--2-2-2-|--------------|--2--0-0-0--2-2-2-|-----------------|
A|--2---------0-0-0-|--------------|--2---------0-0-0-|2---2---2---2----|
E|--0---------------|--------------|--0---------------|--4---5---6---7\-|

Chorus

e|--------------------------------------------------------|
B|--------------------------------------------------------|
G|-2-------4----2----4--------2-------4----2----4---------|
D|-2-------4----2----4--------2-------4----2----4---------|
A|-0--2----2----0----2--------0--2----2----0----2---------|
E|----0--------------------------0------------------------|

e|--------------------------------------------------------|
B|-3--3-----------------------3--3------------------------|
G|-0--2----2---------2--------0--2----2---------2---------|
D|-0--0----2---------2--------0--0----2---------2---------|
A|---------0---------0----------------0---------0---------|
E|-3------------3-------------3------------3--------------|


e|--------------------------------------------------------|
B|--------------------------------------------------------|
G|-2-------4----2----4--------2-------4----2----4---------|
D|-2-------4----2----4--------2-------4----2----4---------|
A|-0--2----2----0----2--------0--2----2----0----2---------|
E|----0--------------------------0------------------------|

e|-3----3--3--3--------3--3----3--3--3--3--3--3--3----2----2--2-------|
B|-3----3--3--3--------3--3----3--3--3--3--3--3--3----3----3--3-------|
G|-0----0--0--0--------0--0----0--0--0--0--0--0--0----2----2--2-------|
D|-0----0--0--0--------0--0----0--0--0--0--0--0--0----0----0--0-------|
A|--------------------------------------------------------------------|
E|-3----3--3--3--------3--3----3--3--3--3--3--3--3--------------------|

Solo 1

e|---------------------------------------------------------------------|
B|---------------------------------------------------------------------|
G|-------------------------0-2h3p0-2---0-------------------------------|
D|-----------------------------------2---------------------------------|
A|---7-7---5-5-5----4-4-4----------------------------------------------|
E|-0-----0--------0----------------------------------------------------|


e|---------------------------------------------------------------------|
B|------------------------------------------5-8/10---8^----------------|
G|--------------------------7-7-7-7-7-7-7^---------9-------------------|
D|---------------------------------------------------------------------|
A|---7--7---5-5-5---4-4-4----------------------------------------------|
E|-0------0--------0---------------------------------------------------|


e|---------------------------------------------------------------------|
B|-8-10h11p10-8-10-8---------------------------------------------------|
G|--------------------9-7-9^-----12-12-12^-----------12-14^-12-14^-----|
D|------------------------------------------14-------------------------|
A|---------------------------------------------------------------------|
E|---------------------------------------------------------------------|


e|-------------------------------------|
B|-15-15-15^-15-12---------------------|
G|-----------------14-12----12^--------|
D|-----------------------14------------|
A|-------------------------------------|
E|-------------------------------------|


e|----12^-12^-12^-12^-12^-12^-12^-12^-12^-12^-12^-12^------------------|
B|-12---------------------------------15-12----12----------------------|
G|------------------------------------------14----12—14^-12-14^--------|
D|---------------------------------------------------------------------|
A|---------------------------------------------------------------------|
E|---------------------------------------------------------------------|

e|-12------------------------------------------------------------------|
B|----15-12-----12-----------------------------------------------------|
G|----------14------12-14^-12-14^--------------------------------------|
D|---------------------------------------------------------------------|
A|---------------------------------------------------------------------|
E|---------------------------------------------------------------------|

e|-----------------------12--------------------------------------------|
B|---------------12-15^-----15-12----12--------------------------------|
G|-14^-12-14^-12------------------14-----12----------------------------|
D|-------------------------------------------14\\\---------------------|
A|---------------------------------------------------------------------|
E|---------------------------------------------------------------------|

e|----0-----------0--0------------0----0--0----------------12---------|
B|-0-----3--5----/5--3----3-------2p0--2--2-------------12----15^(17)-|
G|----------4----------------------------------/14^(16)---------------|
D|--------------------------------------------------------------------|
A|--------------------------------------------------------------------|
E|--------------------------------------------------------------------|


e|-0-------------0-------------0--------0-----------------------------|
B|-5--3--3--5----5--0h2--3-----2--0--0--2-----14^(15)^(14)-12-14^(15)-|
G|--------------------------------------------14^(15)^(14)-12-14^(15)-|
D|--------------------------------------------------------------------|
A|--------------------------------------------------------------------|
E|--------------------------------------------------------------------|


Solo 2


e|-----------------------------------|
B|-----------------------------------|
G|-----------------------------------|
D|-----------------------------------|
A|----5\4-2-4------------------------|
E|-0-----------3-7-5---7-6---7-7-----| x4

e|------------------------------|
B|------------------------------|
G|------------------------------|
D|---5\4-2-4--------------------|
A|-0----------3-7-5---76---7-7--|
E|------------------------------| x2

e|-----------------------------------|
B|-----------------------------------|
G|-----------------------------------|
D|-----------------------------------|
A|----5\4-2-4------------------------|
E|-0-----------3-7-5---7-6---7-7-----| x2

Outro

e|----------------------|
B|----3-3-3-------------|
G|----2-2-2—-2-2-2------|
D|-2—-0-0-0-—2-2-2—-2*--|
A|-2---------0-0-0—-2---|
E|-0----------------0---|


e|---------------------------3p0----------------|
B|-------------------------------3p0------------|
G|-----------------------------------2^p0-------|
D|-----------------------------------2^p0—-2*-2-|
A|-----------------------------------------2—-2-|
E|-0-0-0-0-0-0-0-0-0-0-0-0-----------------0—-0-|
Tremolo picking


Order

Main Riff
Chorus
Main Riff
Chorus
Solo 1
Chorus
Solo 2
Chorus
Outro


Key

^ -------| Bend
* -------| Let Ring
/ -------| Slide Up
\ -------| Slide Down
h -------| Hammer on
p -------| Pull off
Tunning: Standard (E A D G B e)
[Intro]

e|-----------------|----------------|
B|-----------------|----------------|
G|-----------------|----------------|
D|-x---x---x---x---|-x---x----------|
A|-x---x---x---x---|-x---x----------|
E|-x---x---x---x---|-x---x----------|


e|-----------------------|----------3p0-------------|-----------------------|--------------------|
B|-----------------------|--------------3p0---------|-----------------------|--------------------|
G|---------7-7-7---------|------------------2b3r2p0-|---------7-7-7---------|--------------------| x2
D|-2-------7-7-7-----7-7-|-7------------------------|-2-------7-7-7-----7-7-|-7------------------|
A|-2-------5-5-5-----7-7-|-7------------------------|-2-------5-5-5-----7-7-|-7---2---2---2---2--|
E|-0-----------------5-5-|-5------------------------|-0-----------------5-5-|-5----4---5---6---7\|

[Verse 1]

e|-----------------------|----------3p0-------------|-----------------------|--------------------|
B|-----------------------|--------------3p0---------|-----------------------|--------------------|
G|---------7-7-7---------|------------------2b3r2p0-|---------7-7-7---------|--------------------| x2
D|-2-------7-7-7-----7-7-|-7------------------------|-2-------7-7-7-----7-7-|-7------------------|
A|-2-------5-5-5-----7-7-|-7------------------------|-2-------5-5-5-----7-7-|-7---2---2---2---2--|
E|-0-----------------5-5-|-5------------------------|-0-----------------5-5-|-5----4---5---6---7\|


[Chorus]

e|------------------|-----------------|---3-------------|---3-------------|
B|------------------|-----------------|---3--3----------|---3--3----------|
G|----2-----4--2--4-|---2-----4--2--4-|---0--2--2-----2-|---0--2--2-----2-|
D|----2--2--4--2--4-|---2--2--4--2--4-|---0--0--2-----2-|---0--0--2-----2-|
A|----0--2--2--0--2-|---0--2--2--0--2-|---------0-----0-|---------0-----0-|
E|-------0----------|------0----------|---3--------3----|---3--------3----|


e|------------------|-----------------|-3----3----3-----|-----------------|
B|------------------|-----------------|-3----3----3-----|-3----3----3-----|
G|----2-----4--2--4-|---2-----4--2--4-|-0----0----0-----|-2----2----2-----|
D|----2--2--4--2--4-|---2--2--4--2--4-|-0----0----0-----|-0----0----0-----|
A|----0--2--2--0--2-|---0--2--2--0--2-|-----------------|-----------------|
E|-------0----------|------0----------|-3----3----3-----|-----------------|

[Verse 2]

e|-----------------------|----------3p0-------------|-----------------------|--------------------|
B|-----------------------|--------------3p0---------|-----------------------|--------------------|
G|---------7-7-7---------|------------------2b3r2p0-|---------7-7-7---------|--------------------| x2
D|-2-------7-7-7-----7-7-|-7------------------------|-2-------7-7-7-----7-7-|-7------------------|
A|-2-------5-5-5-----7-7-|-7------------------------|-2-------5-5-5-----7-7-|-7---2---2---2---2--|
E|-0-----------------5-5-|-5------------------------|-0-----------------5-5-|-5----4---5---6---7\|


[Chorus]

e|------------------|-----------------|---3-------------|---3-------------|
B|------------------|-----------------|---3--3----------|---3--3----------|
G|----2-----4--2--4-|---2-----4--2--4-|---0--2--2-----2-|---0--2--2-----2-|
D|----2--2--4--2--4-|---2--2--4--2--4-|---0--0--2-----2-|---0--0--2-----2-|
A|----0--2--2--0--2-|---0--2--2--0--2-|---------0-----0-|---------0-----0-|
E|-------0----------|------0----------|---3--------3----|---3--------3----|


e|------------------|-----------------|-3----3----3-----|-----------------|
B|------------------|-----------------|-3----3----3-----|-3----3----3-----|
G|----2-----4--2--4-|---2-----4--2--4-|-0----0----0-----|-2----2----2-----|
D|----2--2--4--2--4-|---2--2--4--2--4-|-0----0----0-----|-0----0----0-----|
A|----0--2--2--0--2-|---0--2--2--0--2-|-----------------|-----------------|
E|-------0----------|------0----------|-3----3----3-----|-----------------|

[Solo]

Gtr I
P.M..................|
e|-----------------------|-------------------------|-----------------------|--------------------|
B|-----------------------|-------------------------|-----------------------|--------------------|
G|---------7-7-7---------|-------------------------|---------7-7-7---------|----------2-------2-|
D|-2-------7-7-7-----7-7-|-7-----------------------|-2-------7-7-7-----7-7-|-7--------2---2---2-|
A|-2-------5-5-5-----4-4-|-4---2-2-2---2-2-2---2-2-|-2-------5-5-5-----4-4-|-4----2---0---2---0-|
E|-0---------------------|-----0-0-0---0-0-0---0-0-|-0---------------------|------0-------0-----|
P.M.
GtrII

e|-----------------------|-------------------------|-----------------------|--------------------|
B|-----------------------|-------------------------|-----------------------|--------------------|
G|-----------------------|-------------0-3p2p0-2---|-----------------------|---------7--7--7--7-|
D|-----------------------|-----------2-----------2-|-----------------------|--------------------|
A|----7~-------5--5~-----|-4--4~-------------------|----7~-------5--5~-----|-4--4~--------------|
E|-0---------------------|-------------------------|-0---------------------|--------------------|

Gtr I
P.M.................| P.M.
e|-----------------------|-----------------------------|-----------------------|------------------------|
B|-----------------------|-----------------------------|-----------------------|------------------------|
G|---------7-7-7---------|-----------------------------|---------7-7-7---------|--------------2-------2-|
D|-2-------7-7-7-----7-7-|-7---------------------------|-2-------7-7-7-----7-7-|-7------------2---2---2-|
A|-2-------5-5-5-----4-4-|-4-------2-2-2---2-2-2---2-2-|-2-------5-5-5-----4-4-|-4--------2---0---2---0-|
E|-0---------------------|---------0-0-0---0-0-0---0-0-|-0---------------------|----------0-------0-----|

GtrII

e|-----------------------|-----------------------------|------10---10--10------|-----------------10-----|
B|-------------8---------|--8-10h11p10p8-10-8-------8-8|-10b12--10b12--r10p8-10|-8----8-10--10b12--10b12|
G|-7b9~----7b9---7b9--/9~|-9-----------------9-7-9~--9-|-----------------------|--9-9--9----------------|
D|-----------------------|-----------------------------|-----------------------|------------------------|
A|-----------------------|-----------------------------|-----------------------|------------------------|
E|-----------------------|-----------------------------|-----------------------|------------------------|


Gtr I
P.M..................| P.M.
e|---------------------------|-------------------------|-----------------------|--------------------|
B|---------------------------|-------------------------|-----------------------|--------------------|
G|-------------7-7-7---------|-------------------------|---------7-7-7---------|----------2-------2-|
D|-2-----------7-7-7-----7-7-|-7-----------------------|-2-------7-7-7-----7-7-|-7--------2---2---2-|
A|-2-----------5-5-5-----4-4-|-4---2-2-2---2-2-2---2-2-|-2-------5-5-5-----4-4-|-4----2---0---2---0-|
E|-0-------------------------|-----0-0-0---0-0-0---0-0-|-0---------------------|------0-------0-----|

GtrII

e|---12-12-----------12------|-------------------------|-----------------------|--------------------|
B|-12-----15b17-(17~)--15p12-|------------------15-----|-----------------------|--------------------|
G|---------------------------|-14b16r14p12-14b16-14b16~|-----------------------|--------------------|
D|---------------------------|-------------------------|-----------------------|--------------------|
A|---------------------------|-------------------------|-----------------------|--------------------|
E|---------------------------|-------------------------|-----------------------|--------------------|

Gtr I
P.M..................| P.M.
e|-----------------------|-------------------------|-----------------------|--------------------|
B|-----------------------|-------------------------|-----------------------|--------------------|
G|---------7-7-7---------|-------------------------|---------7-7-7---------|----------2-------2-|
D|-2-------7-7-7-----7-7-|-7-----------------------|-2-------7-7-7-----7-7-|-7--------2---2---2-|
A|-2-------5-5-5-----4-4-|-4---2-2-2---2-2-2---2-2-|-2-------5-5-5-----4-4-|-4----2---0---2---0-|
E|-0---------------------|-----0-0-0---0-0-0---0-0-|-0---------------------|------0-------0-----|


[Chorus]

e|------------------|-----------------|---3-------------|---3-------------|
B|------------------|-----------------|---3--3----------|---3--3----------|
G|----2-----4--2--4-|---2-----4--2--4-|---0--2--2-----2-|---0--2--2-----2-|
D|----2--2--4--2--4-|---2--2--4--2--4-|---0--0--2-----2-|---0--0--2-----2-|
A|----0--2--2--0--2-|---0--2--2--0--2-|---------0-----0-|---------0-----0-|
E|-------0----------|------0----------|---3--------3----|---3--------3----|


e|------------------|-----------------|-3----3----3-----|-----------------|
B|------------------|-----------------|-3----3----3-----|-3----3----3-----|
G|----2-----4--2--4-|---2-----4--2--4-|-0----0----0-----|-2----2----2-----|
D|----2--2--4--2--4-|---2--2--4--2--4-|-0----0----0-----|-0----0----0-----|
A|----0--2--2--0--2-|---0--2--2--0--2-|-----------------|-----------------|
E|-------0----------|------0----------|-3----3----3-----|-----------------|



[Break]

e|----------------------------| |----------------------------| |----------------------------|
B|----------------------------| |----------------------------| |----------------------------|
G|----------------------------| x4 |----------------------------| x2 |----------------------------| x2
D|----------------------------| |---5-4-2-4------2---2---2---| |----------------------------|
A|---5-4-2-4------2---2---2---| |-0---------3~----5---6---7\-| |---5-4-2-4------2---2---2---|
E|-0---------3~----5---6---7\-| |----------------------------| |-0---------3~----5---6---7\-|


[Chorus]

e|------------------|-----------------|---3-------------|---3-------------|
B|------------------|-----------------|---3--3----------|---3--3----------|
G|----2-----4--2--4-|---2-----4--2--4-|---0--2--2-----2-|---0--2--2-----2-|
D|----2--2--4--2--4-|---2--2--4--2--4-|---0--0--2-----2-|---0--0--2-----2-|
A|----0--2--2--0--2-|---0--2--2--0--2-|---------0-----0-|---------0-----0-|
E|-------0----------|------0----------|---3--------3----|---3--------3----|


e|------------------|-----------------|-3----3----3-----|-----------------|
B|------------------|-----------------|-3----3----3-----|-3----3----3-----|
G|----2-----4--2--4-|---2-----4--2--4-|-0----0----0-----|-2----2----2-----|
D|----2--2--4--2--4-|---2--2--4--2--4-|-0----0----0-----|-0----0----0-----|
A|----0--2--2--0--2-|---0--2--2--0--2-|-----------------|-----------------|
E|-------0----------|------0----------|-3----3----3-----|-----------------|

[Outro]

Gtr I
P.M.................| P.M.
e|-----------------------|-------------------------|-----------------------|--------------------|
B|-----------------------|-------------------------|-----------------------|--------------------|
G|---------7-7-7---------|-------------------------|---------7-7-7---------|----------2-------2-|
D|-2-------7-7-7-----7-7-|-7-----------------------|-2-------7-7-7-----7-7-|-7--------2---2---2-|
A|-2-------5-5-5-----4-4-|-4---2-2-2---2-2-2---2-2-|-2-------5-5-5-----4-4-|-4----2---0---2---0-|
E|-0---------------------|-----0-0-0---0-0-0---0-0-|-0---------------------|------0-------0-----|

***********************************
| x deadnote
| / slide up
| \ slide down
| b bend
| ~ vibrato
| r release
***********************************
Tunning: Standard (E A D G B e)
-----------------------------------------------------------------------------
BACK IN BLACK - AC/DC
-----------------------------------------------------------------------------
Tabbed by: Sean Buccos
Email: seanbuccos@aol.com

Tuning: Standard

This is one of the best rock 'n' roll songs ever written, and it deserves an equally
great tab. So for all my fellow rock fans who demand perfection, here's Back in Black
the way it's supposed to be played. Starting with a tab book, I learned the song and then
made a few modifications to get the real feel of Malcolm & Angus Young's style. The way
I play it along with the song to get great sound is with an Epiphone guitar (Gibson
humbuckers is what's I'm saying), bridge pickup only, volume & tone all the way up, and
a Marshall amp, gain at about 2, bass all the way down, contour (or middle) and treble
all the way up. This will give you the older AC/DC sound, but not so much as to take away
your own originality.

So first we've got the little intro. It builds suspense if you know what's coming up.
Light drum taps accompany lead guitar in this intro. The best way to play: Finger an E5
(see the verse for this) chord and then lay your fretting fingers across the strings so
they're muted, then every time you hit the strings let your picking hand's palm hit the
strings for additional muting.


[Intro]

e|------------------------------------------|
B|------------------------------------------|
G|------x---------x---------x---------------|
D|------x---------x---------x---------------|
A|-x----x----x----x----x----x---------------|
E|-x----x----x----x----x----x----x----x-----|


[Verse] x4

The verse: The all famous riff! I modified the "real tab" to make it sound kick-ass; I
put in a few extra bass notes. And a little note, make the fourth phrase tight, with
stops in between each pair of notes.

E5 D5/A E5 R
e||--------------------------------------|-3--0-------------------|
B||o----------3-3-3----------------------|-------3--0-------------|
G||-----------2-2-2--------2-2-2---------|-------------(4)^2--0---|
D||o-2--------0-0-0--------2-2-2---------|------------------------|
A||--2--------0------------0-0-0---------|------------------------|
E||--0---------------------x-x-x---------|------------------------|

E5 D5/A A
e|-------------------------------------|------------------------||
B|----------3-3-3----------------------|-----------------------o||
G|----------2-2-2--------2-2-2---------|------------------------||
D|-2--------0-0-0--------2-2-2---------|-----------------------o||
A|-2--------0------------0-0-0---------|------------------------||
E|-0---------------------x-x-x---------|-7-4--7-5--7-6--7-7\----||

Ahh the other famous riff, the chorus. You could play an E chord as the second chord in
the chorus but I find it helps build up that B chord if you only play an open E string.


[Chorus]

A5 B5 A5 B5 A5 B5 A5 B5
e||----------------------------------------------------------||
B||o--------------------------------------------------------o||
G||--2-------4----2----4--------2-------4----2----4----------||
D||o-2-------4----2----4--------2-------4----2----4---------o||
A||--0-------2----0----2--------0-------2----0----2----------||
E||-----0--------------------------0-------------------------||
let all notes ring

Hit the A chord in this next part hard and exact on time, it's right on a beat so it
requires emphasis musically and also sounds much better that way.

G5 D5 A5 G5 D5 A5
e||----------------------------------------------------------||
B||o-3--3-----------------------3--3------------------------o||
G||--0--2----2---------2--------0--2----2---------2----------||
D||o-0--0----2---------2--------0--0----2---------2---------o||
A||----------0---------0----------------0---------0----------||
E||--3------------3-------------3------------3---------------||
let all notes ring

A5 B5 A5 B5 A5 B5 A5 B5
e||----------------------------------------------------------||
B||o--------------------------------------------------------o||
G||--2-------4----2----4--------2-------4----2----4----------||
D||o-2-------4----2----4--------2-------4----2----4---------o||
A||--0-------2----0----2--------0-------2----0----2----------||
E||-----0--------------------------0-------------------------||
let all notes ring

Okay this isn't exactly how you should play it, but for example purposes this is
approximately how the little brushing before you go back to the verse should be. Then
the D chords are pretty straight-on.

G5 D
e|-3----3--3--3--------3--3----3--3--3--3--3--3--3----2----2--2---------|
B|-3----3--3--3--------3--3----3--3--3--3--3--3--3----3----3--3---------|
G|-0----0--0--0--------0--0----0--0--0--0--0--0--0----2----2--2---------|
D|-0----0--0--0--------0--0----0--0--0--0--0--0--0----0----0--0---------|
A|----------------------------------------------------------------------|
E|-3----3--3--3--------3--3----3--3--3--3--3--3--3----------------------|


[Verse] x2

E5 D5/A E5 R
e||--------------------------------------|-3--0-------------------|
B||o----------3-3-3----------------------|-------3--0-------------|
G||-----------2-2-2--------2-2-2---------|-------------(4)^2--0---|
D||o-2--------0-0-0--------2-2-2---------|------------------------|
A||--2--------0------------0-0-0---------|------------------------|
E||--0---------------------x-x-x---------|------------------------|

E5 D5/A A
e|-------------------------------------|------------------------||
B|----------3-3-3----------------------|-----------------------o||
G|----------2-2-2--------2-2-2---------|------------------------||
D|-2--------0-0-0--------2-2-2---------|-----------------------o||
A|-2--------0------------0-0-0---------|------------------------||
E|-0---------------------x-x-x---------|-7-4--7-5--7-6--7-7\----||


[Chorus]

A5 B5 A5 B5 A5 B5 A5 B5
e||----------------------------------------------------------||
B||o--------------------------------------------------------o||
G||--2-------4----2----4--------2-------4----2----4----------||
D||o-2-------4----2----4--------2-------4----2----4---------o||
A||--0-------2----0----2--------0-------2----0----2----------||
E||-----0--------------------------0-------------------------||
let all notes ring

G5 D5 A5 G5 D5 A5
e||----------------------------------------------------------||
B||o-3--3-----------------------3--3------------------------o||
G||--0--2----2---------2--------0--2----2---------2----------||
D||o-0--0----2---------2--------0--0----2---------2---------o||
A||----------0---------0----------------0---------0----------||
E||--3------------3-------------3------------3---------------||
let all notes ring

A5 B5 A5 B5 A5 B5 A5 B5
e||----------------------------------------------------------||
B||o--------------------------------------------------------o||
G||--2-------4----2----4--------2-------4----2----4----------||
D||o-2-------4----2----4--------2-------4----2----4---------o||
A||--0-------2----0----2--------0-------2----0----2----------||
E||-----0--------------------------0-------------------------||
let all notes ring


[Pre - Solo]

e|-3----3--3--3--------3--3----3--3--3--3--3--3--3----2----2--2---------|
B|-3----3--3--3--------3--3----3--3--3--3--3--3--3----3----3--3---------|
G|-0----0--0--0--------0--0----0--0--0--0--0--0--0----2----2--2---------|
D|-0----0--0--0--------0--0----0--0--0--0--0--0--0----0----0--0---------|
A|----------------------------------------------------------------------|
E|-3----3--3--3--------3--3----3--3--3--3--3--3--3----------------------|

Alright solo time! This solo is very fast and so awesome. It comes completely from the E minor
blues scale. The "underrhythm" as I like to call it is written below. Practice this
solo very slowly, ESPECIALLY the little ascension (I'll tell you where it is when you get
o it). I've written the solo as it is officially played, although I play it with like one
little note missing because it's easier (I've indicated this too).

Alright the first and third phrases here are actually slgihtly modified of the scale,
but it's just to accompany the rhythm chords (written below).


[Guitar Solo (1)]

~~~~~~~~ ~~~~~~~~ ~~~~~~~~
e|--------------------------------------|------------------------|
B|--------------------------------------|------------------------|
G|--------------------------------------|----0--2--3p2p0--2------|
D|--------------------------------------|--------------------2---|
A|----7--------5--5--------4--4---------|-2----------------------|
E|-0------------------------------------|------------------------|

~~~~~~~~ ~~~~~~~~ ~~~~~~~~ ~~~~~~~~~~
e|--------------------------------------|------------------------------|
B|--------------------------------------|------------------------------|
G|--------------------------------------|-7-7--7--7--x-7^(9)-----------|
D|--------------------------------------|------------------------------|
A|----7--------5--5--------4--4---------|------------------------------|
E|-0------------------------------------|------------------------------|

I'm drawing an arrow directly over the note that I omit when playing this solo.
------------------------------|
|
~~~~~~~~ v ~~~~~~~~
e|--------------------------------------------------------------------|
B|-5--8-------------------------8--10h11p10p8--10--8------------------|
G|-------7^(9)^(7)--9--------9------------------------9--7--9---------|
D|--------------------------------------------------------------------|
A|--------------------------------------------------------------------|
E|--------------------------------------------------------------------|

~~~~ ~~~~~~~~
e|---------------------------------------------------------------------|
B|----------------------15------15-----15------------------------------|
G|-12------12--14^(16)------14^(16)--------14^(16)^(14)p12--14---------|
D|-----14--------------------------------------------------------------|
A|---------------------------------------------------------------------|
E|---------------------------------------------------------------------|

~~~~~~~~
e|---------------------------------------------------------|
B|-------------------------------------15------------------|
G|-12---------12------14------14^(16)------14^(16)---------|
D|-12h14--14------14------14-------------------------------|
A|---------------------------------------------------------|
E|---------------------------------------------------------|

Practice this VERY VERY slowly and a hell of a lot of times, it's very very fast.
-----------------------------|---------------|
| |
e|-----12--12---------------------12-----------------|
B|-12------------15^(17)-15^(17)-----15-12----12-----|
G|-----------------------------------------14----12--|
D|---------------------------------------------------|
A|---------------------------------------------------|
E|---------------------------------------------------|

hold bend ~~~~
e|-----------------------15-----------------------------------|
B|----------15------------------------------------------------|
G|-14^(16)------14^(16)------(16)^14--12--14------12^(13)-----|
D|--------------------------------------------14--------------|
A|------------------------------------------------------------|
E|------------------------------------------------------------|


e|-------------------------------------------------------------------------|
B|------------------14--------------------15-------------------------------|
G|----------12------14------12h14^(16)--------14^(16)^(14)--12--14---------|
D|-12-13-14-----14------14------------------------------------------14-----|
A|-------------------------------------------------------------------------|
E|-------------------------------------------------------------------------|

This ascension here is pretty much the same as the one above that I said to practice very
slowly. So practice, practice, practice!

~~~~~~~~
e|---------------------|-12------------------------|
B|-----15^(17)---------|----15-12----12------------|
G|---------------------|----------14----12---------|
D|---------------------|-------------------14\\\---|
A|---------------------|---------------------------|
E|---------------------|---------------------------|

In the fourth phrase that slide up to the 14th fret then bending it to the 16th fret is
hard to do. I find it doesn't make too much of a difference if you just slide up the the
14th fret and do a quick bend as far as you can.

~~ ~~ ~~ ~~~~
e|----0---------|--0--0--------|-0----0--0---|-------------12-------------|
B|-0-----3--5---|-/5--3----3---|-2p0--2--2---|----------12----15^(17)-----|
G|----------4---|--------------|-------------|-/14^(16)-------------------|
D|--------------|--------------|-------------|----------------------------|
A|--------------|--------------|-------------|----------------------------|
E|--------------|--------------|-------------|----------------------------|

~~ ~~ ~~
e|-0------------|-0-----------|-0--------0---|-----------------------------|
B|-5--3--3--5---|-5--0h2--3---|-2--0--0--2---|-14^(15)^(14)-12-14^(15)-----|
G|--------------|-------------|--------------|-14^(15)^(14)-12-14^(15)-----|
D|--------------|-------------|--------------|-----------------------------|
A|--------------|-------------|--------------|-----------------------------|
E|--------------|-------------|--------------|-----------------------------|

Okay here's the "underrhythm," or, simply put, this is what Malcolm plays while Angus
solos. Make sure you don't let these chords ring EXCEPT for the very last set, I'll
indicate it to you. Oh and another thing, the open E string might sound a little off on
the chords that aren't E, but it's just there to keep the solo more or less very key of E.


[Underrhythm] x4

E5 D5/E A5/E E5
e||------------|-----------|-----------|--------------------------|
B||o-----------|-----------|-----------|--------------------------|
G||------------|-----------|-----------|--------------------------|
D||o-9---------|-7-7-7-----|-7-7-7-----|-9-9-9----9-9-9----9-9----|
A||--7---------|-5-5-5-----|-4-4-4-----|-7-7-7----7-7-7----7-7----|
E||--0---------|-0-0-0-----|-0-0-0-----|-0-0-0----0-0-0----0-0----|

E5 D5/E A5/E E5
e|-----------|-----------|-----------|-------------------------||
B|-----------|-----------|-----------|------------------------o||
G|-----------|-----------|-----------|------2---------2--------||
D|-9---------|-7-7-7-----|-7-7-7-----|------2---------2-------o||
A|-7---------|-5-5-5-----|-4-4-4-----|------0----2----0--------||
E|-0---------|-0-0-0-----|-0-0-0-----|-0---------0-------------||
on last repeat let all notes ring

[Chorus]
A5 B5 A5 B5 A5 B5 A5 B5
e||----------------------------------------------------------||
B||o--------------------------------------------------------o||
G||--2-------4----2----4--------2-------4----2----4----------||
D||o-2-------4----2----4--------2-------4----2----4---------o||
A||--0-------2----0----2--------0-------2----0----2----------||
E||-----0--------------------------0-------------------------||
let all notes ring

G5 D5 A5 G5 D5 A5
e||----------------------------------------------------------||
B||o-3--3-----------------------3--3------------------------o||
G||--0--2----2---------2--------0--2----2---------2----------||
D||o-0--0----2---------2--------0--0----2---------2---------o||
A||----------0---------0----------------0---------0----------||
E||--3------------3-------------3------------3---------------||
let all notes ring

A5 B5 A5 B5 A5 B5 A5 B5
e||----------------------------------------------------------||
B||o--------------------------------------------------------o||
G||--2-------4----2----4--------2-------4----2----4----------||
D||o-2-------4----2----4--------2-------4----2----4---------o||
A||--0-------2----0----2--------0-------2----0----2----------||
E||-----0--------------------------0-------------------------||
let all notes ring


[Pre-Solo]

e|-3----3--3--3--------3--3----3--3--3--3--3--3--3----2----2--2---------|
B|-3----3--3--3--------3--3----3--3--3--3--3--3--3----3----3--3---------|
G|-0----0--0--0--------0--0----0--0--0--0--0--0--0----2----2--2---------|
D|-0----0--0--0--------0--0----0--0--0--0--0--0--0----0----0--0---------|
A|----------------------------------------------------------------------|
E|-3----3--3--3--------3--3----3--3--3--3--3--3--3----------------------|

Now this second guitar solo you're gonna see wrong alot of places, but this is how it's
played really. Just think about the first box of the Em blues scale it makes sense, and
not only that, it just sounds right. I've left out vibrato marks because they're not
required. But for you more experienced players you should be able to throw in some
vibrato where necessary.


[Guitar Solo] x2

e||------------------------------------------------||
B||o----------------------------------------------o||
G||------------------------------------------------||
D||o----------------------------------------------o||
A||-----5\4--2--4----------------------------------||
E||--0-------------3----7--5----7--6----7--7\------||


e||------------------------------------------------||
B||o----------------------------------------------o||
G||------------------------------------------------||
D||o----------------------------------------------o||
A||-----5\4--2--4----------------------------------||
E||--0-------------3----7--5----7--6----7--7\------||

Same riff as above, just moved up a string.

e||------------------------------------------------||
B||o----------------------------------------------o||
G||------------------------------------------------||
D||o----5\4--2--4---------------------------------o||
A||--0-------------3----7--5----7--6----7--7\------||
E||------------------------------------------------||

Back to the first riff.

e||------------------------------------------------||
B||o----------------------------------------------o||
G||------------------------------------------------||
D||o----------------------------------------------o||
A||-----5\4--2--4----------------------------------||
E||--0-------------3----7--5----7--6----7--7\------||


[Chorus]

A5 B5 A5 B5 A5 B5 A5 B5
e||----------------------------------------------------------||
B||o--------------------------------------------------------o||
G||--2-------4----2----4--------2-------4----2----4----------||
D||o-2-------4----2----4--------2-------4----2----4---------o||
A||--0-------2----0----2--------0-------2----0----2----------||
E||-----0--------------------------0-------------------------||
let all notes ring

G5 D5 A5 G5 D5 A5
e||----------------------------------------------------------||
B||o-3--3-----------------------3--3------------------------o||
G||--0--2----2---------2--------0--2----2---------2----------||
D||o-0--0----2---------2--------0--0----2---------2---------o||
A||----------0---------0----------------0---------0----------||
E||--3------------3-------------3------------3---------------||
let all notes ring

A5 B5 A5 B5 A5 B5 A5 B5
e||----------------------------------------------------------||
B||o--------------------------------------------------------o||
G||--2-------4----2----4--------2-------4----2----4----------||
D||o-2-------4----2----4--------2-------4----2----4---------o||
A||--0-------2----0----2--------0-------2----0----2----------||
E||-----0--------------------------0-------------------------||
let all notes ring

e|-3----3--3--3--------3--3----3--3--3--3--3--3--3----2----2--2---------|
B|-3----3--3--3--------3--3----3--3--3--3--3--3--3----3----3--3---------|
G|-0----0--0--0--------0--0----0--0--0--0--0--0--0----2----2--2---------|
D|-0----0--0--0--------0--0----0--0--0--0--0--0--0----0----0--0---------|
A|----------------------------------------------------------------------|
E|-3----3--3--3--------3--3----3--3--3--3--3--3--3----------------------|

Now this song fades out so rather than playing the outro solo I always use the ending
that AC/DC does in concert. The ending is very AC/DC, alot of their songs end like this.
Just play the first phrase of the verse at a slower tempo, then after letting the A5 ring
just tremolo pick the hello out of it, then have a nice suspended pause, the hit an E5
and tremolo pick that, maybe add a few pick scratches (or pick slides if you're more
comfortable with that term). If you really want to do that outro solo I suggest knowledge
of the Em blues scale. It's the first box up one octave (E string 12th fret as the lowest root).

Okay so enjoy this tab, it is very correct, IM (SeanBuccos) or e-mail me (above) if you
have any questions or comments or whatever, and have fun playing!!!


************************************

| x Dead note
| h Hammer-on
| p Pull-off
| / Slide up
| \ Slide down

************************************
Tunning: Standard (E A D G B e)
---------------------------------------------------------------------------
BACK IN BLACK - AC/DC
---------------------------------------------------------------------------

Tabbed by: UNDERHANDER


This song ia tabbed al the way through so you can play along with the cd:

Intro:
e|-------------------3p0----------|----------------------------------------|
B|----3-3-3-------------3p0-------|----3-3-3-------------------------------|
G|----2-2-2--2-2-2---------2^p0---|----2-2-2--2-2-2------------------------|
D|-2--0-0-0--2-2-2--------------2-|-2--0-0-0--2-2-2------------------------|
A|-2---------0-0-0----------------|-2---------0-0-0--2----2-0--2-1--2-2----|
E|-0------------------------------|-0-------------------4------------------|

e|-------------------3p0----------|----------------------------------------|
B|----3-3-3-------------3p0-------|----3-3-3-------------------------------|
G|----2-2-2--2-2-2---------2^p0---|----2-2-2--2-2-2------------------------|
D|-2--0-0-0--2-2-2--------------2-|-2--0-0-0--2-2-2------------------------|
A|-2---------0-0-0----------------|-2---------0-0-0--2----2-0--2-1--2-2----|
E|-0------------------------------|-0-------------------4------------------|

e|-------------------3p0----------|----------------------------------------|
B|----3-3-3-------------3p0-------|----3-3-3-------------------------------|
G|----2-2-2--2-2-2---------2^p0---|----2-2-2--2-2-2------------------------|
D|-2--0-0-0--2-2-2--------------2-|-2--0-0-0--2-2-2------------------------|
A|-2---------0-0-0----------------|-2---------0-0-0--2----2-0--2-1--2-2----|
E|-0------------------------------|-0-------------------4------------------|

e|-------------------3p0----------|----------------------------------------|
B|----3-3-3-------------3p0-------|----3-3-3-------------------------------|
G|----2-2-2--2-2-2---------2^p0---|----2-2-2--2-2-2------------------------|
D|-2--0-0-0--2-2-2--------------2-|-2--0-0-0--2-2-2------------------------|
A|-2---------0-0-0----------------|-2---------0-0-0--2----2-0--2-1--2-2----|
E|-0------------------------------|-0-------------------4------------------|

Chorus:
e|----------------|-----------------|------------------|-------------------|
B|----------------|-----------------|--3--3------------|--3--3-------------|
G|----------------|-----------------|--0--2--2------2--|--0--2--2------2---|
D|-2-----4--4--4--|--2-----4--4--4--|--0--0--2------0--|--0--0--2------2---|
A|-0--2--2--0--2--|--0--2--2--0--2--|--2-----0------0--|--3-----0------0---|
E|----0-----------|-----0-----------|--3--------3^-----|--3--------3^------|

e|----------------|-----------------|--------------------------------------|
B|----------------|-----------------|--3--3--3---3--3--3--3---3--3---3-3-3-|
G|----------------|-----------------|--0--0--0---0--0--0--0---0--0---2-2-2-|
D|-2-----4--4--4--|--2-----4--4--4--|--0--0--0---0--0--0--0---0--0---0-0-0-|
A|-0--2--2--0--2--|--0--2--2--0--2--|--2--2--2---2--2--2--2---2--2---0-0-0-|
E|----0-----------|-----0-----------|--3--3--3---3--3--3--3---3--3---------|

Verse:
e|-------------------3p0----------|----------------------------------------|
B|----3-3-3-------------3p0-------|----3-3-3-------------------------------|
G|----2-2-2--2-2-2---------2^p0---|----2-2-2--2-2-2------------------------|
D|-2--0-0-0--2-2-2--------------2-|-2--0-0-0--2-2-2------------------------|
A|-2---------0-0-0----------------|-2---------0-0-0--2----2-0--2-1--2-2----|
E|-0------------------------------|-0-------------------4------------------|

e|-------------------3p0----------|----------------------------------------|
B|----3-3-3-------------3p0-------|----3-3-3-------------------------------|
G|----2-2-2--2-2-2---------2^p0---|----2-2-2--2-2-2------------------------|
D|-2--0-0-0--2-2-2--------------2-|-2--0-0-0--2-2-2------------------------|
A|-2---------0-0-0----------------|-2---------0-0-0--2----2-0--2-1--2-2----|
E|-0------------------------------|-0-------------------4------------------|

Chorus:
e|----------------|-----------------|------------------|-------------------|
B|----------------|-----------------|--3--3------------|--3--3-------------|
G|----------------|-----------------|--0--2--2------2--|--0--2--2------2---|
D|-2-----4--4--4--|--2-----4--4--4--|--0--0--2------0--|--0--0--2------2---|
A|-0--2--2--0--2--|--0--2--2--0--2--|--2-----0------0--|--3-----0------0---|
E|----0-----------|-----0-----------|--3--------3^-----|--3--------3^------|

e|----------------|-----------------|--------------------------------------|
B|----------------|-----------------|--3--3--3---3--3--3--3---3--3---3-3-3-|
G|----------------|-----------------|--0--0--0---0--0--0--0---0--0---2-2-2-|
D|-2-----4--4--4--|--2-----4--4--4--|--0--0--0---0--0--0--0---0--0---0-0-0-|
A|-0--2--2--0--2--|--0--2--2--0--2--|--2--2--2---2--2--2--2---2--2---0-0-0-|
E|----0-----------|-----0-----------|--3--3--3---3--3--3--3---3--3---------|

Solo:
e|-------------------------------------------------------------------------|
B|-------------------------------------------------------------------------|
G|--------------------------------0h3p2p0h2--------------------------------|
D|----------------------------0h2-----------2------------------------------|
A|-----7~~~-----5~~~----4~~~----------------------7~~~-----5~~~----4~~~----|
E|--0--------0--------0------------------------0--------0--------0---------|

e|-------------------------------------------|
B|----------------8------8h10h11p10p8h10p8---|
G|-7-7-7-7-7-7^/9---9-9~---------------------|
D|-0-0-0-0-0---------------------------------|
A|-------------------------------------------|
E|-------------------------------------------|

e|---------------------------------------------|
B|--------------------15-15--14----------------|
G|--9-9~-12----12-14^----14^----14^(14)-12-14~-|
D|-----------14--------------------------------|
A|---------------------------------------------|
E|---------------------------------------------|

e|------------------------------------12-12-------------|
B|--------------------------15-----12-------15-15^------|
G|-12-------12----14----14^----14^----------------------|
D|----14-14----14----14---------------------------------|
A|------------------------------------------------------|
E|------------------------------------------------------|

e|-12--------------------------------------------------|
B|----15p12--------------15----------------------------|
G|----------15p14p12h14^----14^---14^-12h14----12-14~--|
D|------------------------------------------14---------|
A|-----------------------------------------------------|
E|-----------------------------------------------------|

e|---------------------------------------------------12------------------|
B|----------12----14----12-----15----------------15^----15p12------------|
G|----------12----14----12-14^----14^-12-14-----------------14-15-12-14^-|
D|-12-14-14----14----14-----------------------14-------------------------|
A|-----------------------------------------------------------------------|
E|-----------------------------------------------------------------------|

e|-0----------0----------0----0-0--------12-------|
B|-0----------0----------0----0-0-----12----15^---|
G|-9-9-7-9~~--7-6-6-7~~--6-4--6-6--13-------------|
D|------------------------------------------------|
A|------------------------------------------------|
E|------------------------------------------------|

e|-0--------------0----------0--------------------|
B|-0---------------------------------14^-14-12----|
G|-9-9-7-9~~--7-6---7~~--6-4---6~~---14--14-12----|
D|---------------------------------------------14-|
A|------------------------------------------------|
E|------------------------------------------------|

Chorus:
e|----------------|-----------------|------------------|-------------------|
B|----------------|-----------------|--3--3------------|--3--3-------------|
G|----------------|-----------------|--0--2--2------2--|--0--2--2------2---|
D|-2-----4--4--4--|--2-----4--4--4--|--0--0--2------0--|--0--0--2------2---|
A|-0--2--2--0--2--|--0--2--2--0--2--|--2-----0------0--|--3-----0------0---|
E|----0-----------|-----0-----------|--3--------3^-----|--3--------3^------|

e|----------------|-----------------|--------------------------------------|
B|----------------|-----------------|--3--3--3---3--3--3--3---3--3---3-3-3-|
G|----------------|-----------------|--0--0--0---0--0--0--0---0--0---2-2-2-|
D|-2-----4--4--4--|--2-----4--4--4--|--0--0--0---0--0--0--0---0--0---0-0-0-|
A|-0--2--2--0--2--|--0--2--2--0--2--|--2--2--2---2--2--2--2---2--2---0-0-0-|
E|----0-----------|-----0-----------|--3--3--3---3--3--3--3---3--3---------|

Bridge:
e|------------------------|-------------------------|
B|------------------------|-------------------------|
G|------------------------|-------------------------|
D|------------------------|-------------------------|
A|--5-4-2-4---2-0-2-1-2-2-|-5-4-2-4---2-0-2-1-2-2---|
E|----------3-------------|---------3---------------|

e|------------------------|-------------------------|
B|------------------------|-------------------------|
G|------------------------|-------------------------|
D|------------------------|-------------------------|
A|--5-4-2-4---2-0-2-1-2-2-|-5-4-2-4---2-0-2-1-2-2---|
E|----------3-------------|---------3---------------|

e|------------------------|-------------------------|
B|------------------------|-------------------------|
G|------------------------|-------------------------|
D|--5-4-2-4---2-0-2-1-2-2-|-5-4-2-4---2-0-2-1-2-2---|
A|----------3-------------|---------3---------------|
E|------------------------|-------------------------|

e|------------------------|-------------------------|
B|------------------------|-------------------------|
G|------------------------|-------------------------|
D|------------------------|-------------------------|
A|--5-4-2-4---2-0-2-1-2-2-|-5-4-2-4---2-0-2-1-2-2---|
E|----------3-------------|---------3---------------|

Chorus:
e|----------------|-----------------|------------------|-------------------|
B|----------------|-----------------|--3--3------------|--3--3-------------|
G|----------------|-----------------|--0--2--2------2--|--0--2--2------2---|
D|-2-----4--4--4--|--2-----4--4--4--|--0--0--2------0--|--0--0--2------2---|
A|-0--2--2--0--2--|--0--2--2--0--2--|--2-----0------0--|--3-----0------0---|
E|----0-----------|-----0-----------|--3--------3^-----|--3--------3^------|

e|----------------|-----------------|--------------------------------------|
B|----------------|-----------------|--3--3--3---3--3--3--3---3--3---3-3-3-|
G|----------------|-----------------|--0--0--0---0--0--0--0---0--0---2-2-2-|
D|-2-----4--4--4--|--2-----4--4--4--|--0--0--0---0--0--0--0---0--0---0-0-0-|
A|-0--2--2--0--2--|--0--2--2--0--2--|--2--2--2---2--2--2--2---2--2---0-0-0-|
E|----0-----------|-----0-----------|--3--3--3---3--3--3--3---3--3---------|

e|-------10---------------|
B|--3----13^--------------|
G|--2--------14^-(14~~)---|
D|--0---------------------|
A|--0---------------------|
E|------------------------|



ENJOY
Tunning: Standard (E A D G B e)
[Intro]
e|----------------------------------------------|--------------------------|
B|----------------------------------------------|--------------------------|
G|----------------------------------------------|--------------------------|
D|------{X}--------X--------{X}--------X--------|----{X}--------X----------|
A|------{X}--------X--------{X}--------X--------|----{X}--------X----------|
E|------{X}--------X--------{X}--------X--------|----{X}--------X----------|

[Verse]
E D A R
e|-------------------------------------|--------------3-0------------------|
B|------------------3-3-3--------------|--------------------3-0------------|
G|------------------2-2-2----------2-2-|2-----------------------2^(4)`2p0--|
D|-2----------------0-0-0----------2-2-|2----------------------------------|
A|-2-------------------------------0-0-|0----------------------------------|
E|-0-----------------------------------|-----------------------------------|

E D A
e|------------------------------------|-----------------------------------|
B|-----------------3-3-3--------------|-----------------------------------|
G|-----------------2-2-2----------2-2-|2---------------------------------o|
D|-2---------------0-0-0----------2-2-|2---------------------------------o|
A|-2------------------------------0-0-|0---2-----2-----2-----2------------|
E|-0----------------------------------|------4.----5.----6.----7/---------|


E D A
Back in black_ I hit the sack, I've been too long, I'm glad to be
E D A
back,yes,I'm let loose from the noose,_ That's kept me hangin'
E D A
about.I keep lookin' at the sky 'cause it's gettin' me high. Forget the
E D A
hearse 'cause I'll never die. I got nine lives, cat's eyes, Abusin'

ev'ry one of them and runnin' wild. 'Cause I'm (to Chorus)

[Chorus]
A E B A B A E B A B
back, yes I'm back._ Well I'm
e|---------------------------------------|---------------------------------|
B|---------------------------------------|---------------------------------|
G|-----2------------4-----4------4-------|-----2------------4-----4------4-|
D|-----2-----2------4-----4------4-------|-----2-----2------4-----4------4-|
A|-----0-----2------2-----0------2-------|-----0-----2------2-----0------2-|
E|-----------0---------------------------|-----------0---------------------|
G D A G A G D A G A
back, yes I'm back Well I'm
e|------3-----2--------------------------|--3-----2------------------------|
B|------3-----3--------------------------|--3-----3------------------------|
G|------0-----2-----2-----------2--------|--0-----2-----2------------2-----|
D|------0-----0-----2-----------2--------|--0-----0-----2------------2-----|
A|------x-----------0-----------0--------|--x-----------0------------0-----|
E|------3---------------3^---------------|--3---------------3^-------------|
(sb) (sb)
A E B A B A E B A B
back back. Well I'm
e|---------------------------------------|---------------------------------|
B|---------------------------------------|---------------------------------|
G|-----2------------4-----4------4-------|-----2------------4-----4------4-|
D|-----2-----2------4-----4------4-------|-----2-----2------4-----4------4-|
A|-----0-----2------2-----0------2-------|-----0-----2------2-----0------2-|
E|-----------0---------------------------|-----------0---------------------|
G D end rhythm figure 2
back in black,_ yes, I'm back in black
e|----3------3------3----3-3-3-3------3-|-----2----2----2-----------------|
B|----3------3------3----3-3-3-3------3-|-----3----3----3-----------------|
G|----0------0------0----0-0-0-0------0-|-----2----2----2-----------------|
D|----0------0------0----0-0-0-0------0-|-----0----0----0-----------------|
A|----x------x------x----x-x-x-x------x-|---------------------------------|
E|----3------3------3----3-3-3-3------3-|---------------------------------|

[Verse]
E D A
Back in the back of a Cadillac Number one with a bullet I'm a power
E D A
pack. Yes, I'm in a bang with a gang, They gotta catch me if they
E D A
want me to hang. 'Cause I'm back on the track, and I'm beatin' the flack.
E D
Nobody's gonna get me on another rap. So,look at me now,I'm just makin, my
A
play, Don't try to push your luck, just get out of my way. 'Cause I'm(to Chorus)


Rhythm figure 2
A E B A B A E B A B
back, yes I'm back._ Well I'm
e|---------------------------------------|---------------------------------|
B|---------------------------------------|---------------------------------|
G|-----2------------4-----4------4-------|-----2------------4-----4------4-|
D|-----2-----2------4-----4------4-------|-----2-----2------4-----4------4-|
A|-----0-----2------2-----0------2-------|-----0-----2------2-----0------2-|
E|-----------0---------------------------|-----------0---------------------|
G D A G A G D A G A
back, yes I'm back Well I'm
e|------3-----2--------------------------|--3-----2------------------------|
B|------3-----3--------------------------|--3-----3------------------------|
G|------0-----2-----2-----------2--------|--0-----2-----2------------2-----|
D|------0-----0-----2-----------2--------|--0-----0-----2------------2-----|
A|------x-----------0-----------0--------|--x-----------0------------0-----|
E|------3---------------3^---------------|--3---------------3^-------------|
(sb) (sb)
A E B A B A E B A B
back, back. Well I'm
e|---------------------------------------|---------------------------------|
B|---------------------------------------|---------------------------------|
G|-----2------------4-----4------4-------|-----2------------4-----4------4-|
D|-----2-----2------4-----4------4-------|-----2-----2------4-----4------4-|
A|-----0-----2------2-----0------2-------|-----0-----2------2-----0------2-|
E|-----------0---------------------------|-----------0---------------------|
G D
back in black, yes, I'm back in black
e|----3------3------3----3-3-3-3------3-|-----2----2----2-----------------|
B|----3------3------3----3-3-3-3------3-|-----3----3----3-----------------|
G|----0------0------0----0-0-0-0------0-|-----2----2----2-----------------|
D|----0------0------0----0-0-0-0------0-|-----0----0----0-----------------|
A|----x------x------x----x-x-x-x------x-|---------------------------------|
E|----3------3------3----3-3-3-3------3-|---------------------------------|

[Solo]
E D/E A/E E
Guitar 1 ~~~~~~~~ ~~~~~~~~ ~~~~~~~~
e|--------------------------------|----------------------------------------|
B|--------------------------------|----------------------------------------|
G|--------------------------------|------------------0-2-3p2p0-2-----------|
D|--------------------------------|------------------------------2---------|
A|--------7--------5--5-----------|4--4----------2-------------------------|
E|----0---------------------------|----------------------------------------|
|
|play both at the same time.
|Guitar2
|
|Rhythm figure 3
|
e|--------------------------------|----------------------------------------|
B|--------------------------------|----------------------------------------|
G|--------------------------------|----------------------------------------|
D|----9.-------7-7-7.---------7-7-|7.--------9-9-9---9-9-9-----9-9---------|
A|----7.-------5-5-5.---------4-4-|4.--------7-7-7---7-7-7-----7-7---------|
E|----0.-------0-0-0.---------0-0-|0.--------0-0-0---0-0-0-----0-0---------|

E D/E A/E A E A
~~~~~~~~ ~~~~~~~~ ~~~~~~~~ -----
| 3 | 3
e|--------------------------------|----------------------------------------|
B|--------------------------------|----------------------------------------|
G|--------------------------------|--------------7--7--7--7-X-7------------|
D|--------------------------------|----------------------------------------|
A|--------7--------5--5-----------|4--4------------------------------------|
E|----0---------------------------|----------------------------------------|
|
| end rhythm figure 3
|
e|--------------------------------|---------------------------------------|
B|--------------------------------|-------------2--------------2----------|
G|--------------------------------|-------------2------1-------2----------|
D|----9.-------7-7-7.---------7-7-|7.-----------2------2-------2----------|
A|----7.-------5-5-5.---------4-4-|4.-------2---0------2-------0----------|
E|----0.-------0-0-0.---------0-0-|0.-------0----------0------------------|


(with rhythm figure 3) (3 times)
~~~~~~~ ~~~~~
E D/E A/E E
e|------------------------------|------------------------------------------|
B|------------5-8---------------|----8--10h11p10p8--10--8------------------|
G|7^9--------------7^9----9-----|-9-----------------------9-7-9---12----12-|
D|------------------------------|------------------------------------14----|
A|------------------------------|------------------------------------------|
E|------------------------------|------------------------------------------|

~~~~~~
D/E R A/E
e|----------------------------------------------------|
B|-----------15----15------15-------------------------|
G|14^(16)------14^(16)--------14^(16)`14p12-14--------|
D|----------------------------------------------------|
A|----------------------------------------------------|
E|----------------------------------------------------|

A E A
e|-------------------------------------------------------------------------|
B|----------------------------------------15-------------------------------|
G|--12---------12------14---12---14^(16)--------14^(16)--------------------|
D|--12p14--14------14------------------------------------------------------|
A|-------------------------------------------------------------------------|
E|-------------------------------------------------------------------------|

E D/E A/E
e|---12-12-------------------------------------12--------------------------|
B|12-------15^(17)--15^(17)--15^(17)--15^(17)-------15-12----12------------|
G|--------------------------------------------------------14----12-14^(16)-|
D|-------------------------------------------------------------------------|
A|-------------------------------------------------------------------------|
E|-------------------------------------------------------------------------|

hold bend ~~~~~~
E
e|------------15-----------------------------------------------------------|
B|15-----------------------------------------------------------------------|
G|--14^(16)-------(16)`14--12-14------12^(14)------------------------------|
D|--------------------------------14---------------12--13-14---------------|
A|-------------------------------------------------------------------------|
E|-------------------------------------------------------------------------|

D/E R ~~~~~ A/E
e|-------------------------------------------------------------------------|
B|-----------14----------------15------------------------------------------|
G|---12------14-----12p14^(16)---14^(16)`14-12-14--------------------------|
D|-------14------14-------------------------------14-----------------------|
A|-------------------------------------------------------------------------|
E|-------------------------------------------------------------------------|

A E A
~~~~~~~~~
e|--------------------------12---------------------------------------------|
B|------15^(17)----------------15p12----12---------------------------------|
G|-----------------------------------14-----12-----------------------------|
D|----------------------------------------------14//////-------------------|
A|-------------------------------------------------------------------------|
E|-------------------------------------------------------------------------|

E D/E A/E E
~~~~ ~~~~ ~~~~ ~~~
e|-----------------------0------0--------|-0---0-0-----------12------------|
B|------0--5--3--5------(3/2)-3-3--------|-2p0-2-2--------12----15^(17)----|
G|---------4-----4-----------------------|------------/14-----------------0|
D|---------------------------------------|---------------------------------|
A|---------------------------------------|---------------------------------|
E|---------------------------------------|---------------------------------|

E D/E A/E E A E A
e|-------------------------------------------------------------------------|
B|-----------------------------------------------2---------2---------------|
G|-----------------------------------------------2----1----2---------------|
D|---9==------7-7-7==-------7-7-7==--------------2----2----2---------------|
A|---7==------5-5-5==-------4-4-4==--------2-----0----2----0---------------|
E|---0==------0-0-0==-------0-0-0==--------0----------0--------------------|
|guitar 2
|
|play both at the same time
|
|guitar 1 [Chorus]
| ~~~~~ ~~~~~ ~~~~~ R Well I'm
e|---0--0------------0-----0-----|-0-----0--------------------------------|
B|---5--5--3--5------3p2-3-3-----|-2p0-0-2------14^(15)`14-12-14^(15)/----|
G|-------------------------------|--------------14^(15)`14-12-14^(15)/----|
D|-------------------------------|----------------------------------------|
A|-------------------------------|----------------------------------------|
E|-------------------------------|----------------------------------------|

with Rhythm Figure 2
A E B A B A E B A B
back, yes I'm back._ Well I'm
e|---------------------------------------|---------------------------------|
B|---------------------------------------|---------------------------------|
G|-----2------------4-----4------4-------|-----2------------4-----4------4-|
D|-----2-----2------4-----4------4-------|-----2-----2------4-----4------4-|
A|-----0-----2------2-----0------2-------|-----0-----2------2-----0------2-|
E|-----------0---------------------------|-----------0---------------------|
G D A G A G D A G A
back, yes I'm back Well I'm
e|------3-----2--------------------------|--3-----2------------------------|
B|------3-----3--------------------------|--3-----3------------------------|
G|------0-----2-----2-----------2--------|--0-----2-----2------------2-----|
D|------0-----0-----2-----------2--------|--0-----0-----2------------2-----|
A|------x-----------0-----------0--------|--x-----------0------------0-----|
E|------3---------------3^---------------|--3---------------3^-------------|
(sb) (sb)
A E B A B A E B A B
back,______________________________ back._______________ Well I'm
e|---------------------------------------|---------------------------------|
B|---------------------------------------|---------------------------------|
G|-----2------------4-----4------4-------|-----2------------4-----4------4-|
D|-----2-----2------4-----4------4-------|-----2-----2------4-----4------4-|
A|-----0-----2------2-----0------2-------|-----0-----2------2-----0------2-|
E|-----------0---------------------------|-----------0---------------------|
G D end rhythm figure 2
back in black,_ yes, I'm back in black
e|----3------3------3----3-3-3-3------3-|-----2----2----2-----------------|
B|----3------3------3----3-3-3-3------3-|-----3----3----3-----------------|
G|----0------0------0----0-0-0-0------0-|-----2----2----2-----------------|
D|----0------0------0----0-0-0-0------0-|-----0----0----0-----------------|
A|----x------x------x----x-x-x-x------x-|---------------------------------|
E|----3------3------3----3-3-3-3------3-|---------------------------------|

E
~~~~ ~~~
e|-----------------------------------|-------------------------------------|
B|-----------------------------------|-------------------------------------|
G|-----------------------------------|----------------%-------------------o|
D|-----------------------------------|------------------------------------o|
A|---5p4-2-4-------2------2-----2----|-------------------------------------|
E|-0---------3-------5------6-----7/-|-------------------------------------|
^
|
note: vibratoes and repeat sign |
A ~~~ ~~~
e|----------------------------------|--------------------------------------|
B|----------------------------------|--------------------------------------|
G|----------------------------------|-----------------%--------------------|
D|---5p4-2-4-----2------2------2----|--------------------------------------|
A|-0---------3-----5------6------7/-|--------------------------------------|
E|----------------------------------|--------------------------------------|

E [Chorus]
~~~~ ~~~ Well I'm
e|-----------------------------------|-------------------------------------|
B|-----------------------------------|-------------------------------------|
G|-----------------------------------|----------------%--------------------|
D|-----------------------------------|-------------------------------------|
A|---5p4-2-4-------2------2-----2----|-------------------------------------|
E|-0---------3-------5------6-----7/-|-------------------------------------|

with Rhythm Figure 2
A E B A B A E B A B
back, yes I'm back._ Well I'm
e|---------------------------------------|---------------------------------|
B|---------------------------------------|---------------------------------|
G|-----2------------4-----4------4-------|-----2------------4-----4------4-|
D|-----2-----2------4-----4------4-------|-----2-----2------4-----4------4-|
A|-----0-----2------2-----0------2-------|-----0-----2------2-----0------2-|
E|-----------0---------------------------|-----------0---------------------|
G D A G A G D A G A
back, yes I'm back Well I'm
e|------3-----2--------------------------|--3-----2------------------------|
B|------3-----3--------------------------|--3-----3------------------------|
G|------0-----2-----2-----------2--------|--0-----2-----2------------2-----|
D|------0-----0-----2-----------2--------|--0-----0-----2------------2-----|
A|------x-----------0-----------0--------|--x-----------0------------0-----|
E|------3---------------3^---------------|--3---------------3^-------------|
(sb) (sb)
A E B A B A E B A B
back,______________________________ back._______________ Well I'm
e|---------------------------------------|---------------------------------|
B|---------------------------------------|---------------------------------|
G|-----2------------4-----4------4-------|-----2------------4-----4------4-|
D|-----2-----2------4-----4------4-------|-----2-----2------4-----4------4-|
A|-----0-----2------2-----0------2-------|-----0-----2------2-----0------2-|
E|-----------0---------------------------|-----------0---------------------|
G
back in black,_ yes, I'm
e|----3------3------3----3-3-3-3------3-|
B|----3------3------3----3-3-3-3------3-|
G|----0------0------0----0-0-0-0------0-|
D|----0------0------0----0-0-0-0------0-|
A|----x------x------x----x-x-x-x------x-|
E|----3------3------3----3-3-3-3------3-|

D A
back in black
e|-----2----2----2----------|---------------------|------------------------|
B|-----3----3----3----------|---------------------|------------------------|
G|-----2----2----2----------|-2===================|========================|
D|-----0----0----0----------|-2===================|========================|
A|--------------------------|-0===================|========================|
E|--------------------------|---------------------|------------------------|
| Guitar 2
|play both at the same time
|
| Guitar1 ~~~~~~~~~ R ~~~~~~~ * P.M.
e|--------------------------|----------------------|-----------------------|
B|----------13^(15)---------|--12^(13)========`12--|--10-------------10/---|
G|--------------------------|----------------------|-----------------------|
D|--------------------------|----------------------|---------------0-------|
A|--------------------------|----------------------|-----------15/p0-------|
E|--------------------------|----------------------|---------------------0-|
*D-string sounded by pull-off

[Outro/solo]
(3:35)

[Rhythm Figure 3 until fade]
E D/E A/E E
(sb)
~~~~~ ~~~~~ ~~~~~ ~~~~~
e|-------------0-----------|-0---------------7^--------|
B|-5p3--5------3p2-2-3-----|-2p0-0-2-----/---8^--------|
G|-------------------------|---------------------9---/-|
D|-------------------------|---------------------------|
A|-------------------------|---------------X-----------|
E|-------------------------|---------------X-----------|

E D/E A/E E A E A
~~~~~~ ~~~~~ ~~~~
e|--------------0-----------|0----------------------12---------------------|
B|-5p3-3-5------3p2-2-3-----|2p0-0-2-------15^(17)-----12-15^(17)----------|
G|--------------------------|----------------------------------------------|
D|--------------------------|----------------------------------------------|
A|--------------------------|-----------X----------------------------------|
E|--------------------------|-----------X----------------------------------|

(3:47) ~~~~~~~ R R ~~~~~
e|----------------------------------------------------------------12-------|
B|-15^(16)---15^(17)--------15^(17)-`(16)-^(17)-`(16)-^(17)----------------|
G|-------------------------------------------------------------------------|
D|-------------------------------------------------------------------------|
A|-------------------------------------------------------------------------|
E|-------------------------------------------------------------------------|

bend into next measure
~~~~~ '
e|12---------------------------15^(17)-`(16)------15^|
B|---15p12----12-------------------------------------|
G|---------14----13----------------------------------|
D|------------------14//////-------------------------|
A|---------------------------------------------------|
E|---------------------------------------------------|

(3:52)
e|(17)-15-12-15p12--12-----------------------------------------------------|
B|----------------15--15p12-15p12--12--------------------------------------|
G|-------------------------------15--15p14p12-14p12--14--------------------|
D|-------------------------------------------------14--14p12h14p12--14-----|
A|----------------------------------------------------------------14--14---|
E|-------------------------------------------------------------------------|

P.H.---------------]
------------ (sb)
| 3 | 3 3 '
e|------------------------------------------------|
B|--------------------------------------------20^-|
G|------------------------------------------------|
D|-12^--12-12-12.--12.--12.--12.-12////////-------|
A|------------------------------------------------|
E|------------------------------------------------|
(sb)
~~~~~~ (sb) ~~~~~
e|-------------------------------------------|
B|-----------------20^------------------20===|
G|----21.--21------------21p19--21-----------|
D|-------------------------------------------|
A|-------------------------------------------|
E|-------------------------------------------|

(4:00)
e|-----------------------------------------------------|
B|==(20)-20-20----20-20-20----20-20-20----20-20-20-----|
G|------------21----------21----------21-----------21--|
D|-----------------------------------------------------|
A|-----------------------------------------------------|
E|-----------------------------------------------------|

e|------------------------------------22-------22-----|
B|-20-20-20----20-20-20----20-22^(24)---(24)-----(24)-|
G|----------21----------21----------------------------|
D|----------------------------------------------------|
A|----------------------------------------------------|
E|----------------------------------------------------|

e|-22-----22-----22-----22-----22-----19-|
B|---(24)---(24)---(24)---(24)---(24)----|
G|---------------------------------------|
D|---------------------------------------|
A|---------------------------------------|
E|---------------------------------------|

e|-22-----------------22-------------22-----------------22-19--------19----|
B|-22^(24)-(24)-(24)-(24)-(24)-(24)-(24)-(24)-(24)-(24)-------22^(24)--(24)|
G|-------------------------------------------------------------------------|
D|-------------------------------------------------------------------------|
A|-------------------------------------------------------------------------|
E|-------------------------------------------------------------------------|

R
e|-19-19-22------19-19---------22.-------19-------------19-----------------|
B|-------22^(24)-------22^(24)------(24)---------22^(24)--(24)`22p19-------|
G|-------------------------------------------------------------------------|
D|-------------------------------------------------------------------------|
A|-------------------------------------------------------------------------|
E|-------------------------------------------------------------------------|

~~~~~~ fade out.
e|-----------------------------------|
B|-20----22-21-----------------------|
G|----21-------21p19-21------19------|
D|------------------------------17---|
A|-----------------------------------|
E|-----------------------------------|


***********************************

| / slide down
| \ slide up
| ^ bend
| (3/2) legato slide
| R(`) release bend
| p pull off
| h hammer on
| ~ vibrato
| X muffled strings
| . short note
| {} raked notes
| o repeat rhythm
|| 3 | triplet notes
| || end of riff
| = let note ring
| % repeat bar
| P.M. palm mute
| P.H. pinch harmonic
| (sb) slight bend

***********************************
Song info
Back In Black
AC/DC
2001
  • Rock
  • Hard Rock
Alternative tracks
Similar songs
Rise - The Cult
Fake It - Seether
Never Again - Nickelback

Hi! Hope you enjoy backing track experience.
If you want to help us in the development of the project, feel free to donate!