Hello - Adele
00:00 / 00:00
Tabs and lyrics
Tunning: Standard (E A D G B e)
-------------------------------------------------------------------------------
"HELLO" - Adele
-------------------------------------------------------------------------------
Tabbed by: Alberto Villa
E-mail: albertovilla1993@gmail.com

Link To My Video: https://www.youtube.com/watch?v=-9k_0WMaodQ

Tuning: Standard (CAPO on 1st FRET)


h = hammer on
(o)= Wrist Bump/Bass Kick
x = thumb slap on string(s)
sx = Scratch


[Intro] [Verse 1]

e|------------------|-----------------------|| |--------------|---------------|
B|---0------0-------|---3---------------0---|| |--------------|------------0--|
G|---0------0-------|---2-----0-----2-------|| |--0---0---2---|--2------0-----|
D|---2------0-------|---0-----2-------------||x2 |--2---0-------|--0---2--------|
A|----------2-------|---------3-------------|| |------2-------|------3--------|
E|---0--------------|-----------------------|| |--0-----------|---------------|


e|-----------------------|-----------------|-------------------|----------------|
B|--0-0-0--0-0-----------|--0-----------0--|-0-----------------|--------0-0-0-0-|
G|--0------0----2-2--0h2-|----2--0-0--0----|-0-2h0--0--2-2-2-2-|-2h4--0---------|
D|--2------0-----------0-|-------2---------|-2------0----------|-0----2---------|
A|---------2-------------|-------3---------|--------2----------|------3---------|
E|--0--------------------|-----------------|-0-----------------|----------------|

[Verse 2]

e|-----------------------|--------------||--------------|--------------|---------|
B|--0-0-0--0-0-----------|------------0-||--------------|----0-----0-0-|--0-0-0--|
G|--0------0----2h0--2-2-|--2--0----2---||--0--0--2-2-2-|--2---0-0-----|--0------|
D|--2------0-----------0-|-----2--2-----||--2--0--------|--0---2-------|--2------|
A|---------2-------------|-----3--------||-----2--------|------3-------|---------|
E|--0--------------------|--------------||--0-----------|--------------|--0------|

e|---------------|---------------|---------------|---------------|----------------|
B|--0-0----------|--0----------0-|--0------------|-----------0-0-|--0-0-0--0-0----|
G|--0----2-2-0h2-|----2-0-0--0---|--0-2h0-0--2-2-|--2h4--0-0-----|--0------0----2-|
D|--0----------0-|------2--------|--2-----0------|--0----2-------|--2------0------|
A|--2------------|------3--------|--------2------|-------3-------|---------2------|
E|---------------|---------------|--0------------|---------------|--0-------------|

[Pre-Chorus]

e|-------|-------------------||---------------|--------------------|--------------|
B|-------|--0--------------0-||--0--------0h3-|--3---------------0-|--------------|
G|-2-0h2-|----2-----0--0-0---||--0-2h0-2------|--4----3----2h0-0---|--4h5h4-2h4h2-|
D|-----0-|------2------------||--2-----0------|--4--4---4----------|--2-----0-----|
A|-------|--------3----------||---------------|--2---------3-------|--------------|
E|-------|-------------------||--0------------|--------------------|--0-----------|

[Chorus 1]

(o) (o) (o) (o) (o) (o)

e|-----||--0-0-3--3-5-5-5-|--5~--sx-sx-sx--3-(3)h0----0-|--0-0-3--3-5-5-5-|--5h7h5-|
B|-----||--0------0-------|--0~--sx-sx-sx--3--------3---|--0------0-------|--0-----|
G|--0~-||--0------0-------|--0~--sx-sx-sx--2--------2---|--0------0-------|--0-----|
D|--2~-||-----------------|--0~--sx-sx-sx--0--------0---|--0--------------|--0-----|
A|--3~-||------x--3-----x-|--2~--sx-sx-sx-----------x---|------x--3-----x-|--2-----|
E|-----||--0---x--------x-|------sx-sx-sx-----------x---|--0---x--------x-|--------|

(o) (o) (o) (o) (o) (o) (o)

e|-3-3--10--5h3-|----5----3---3-3-|--3-3h0----------10--5h3-|----5----3---3-3-|
B|-3------------|--0------0-5-----|--0--------3-3-----------|--0------0-5-----|
G|-2------------|--0------0-------|--0--------2-------------|--0------0-------|
D|-0------------|--2--------------|-----------0-------------|--2--------------|
A|-------x------|------x--3---x---|--2-----x---------x------|------x--3---x---|
E|-------x------|--0---x------x---|--------x---------x------|--0---x------x---|


Play last measure 2nd time like this to transition to Verse 3

(o) (o) (o) (o) (o) (o) (o) (o)(o)

e|--3-2h0-----------0-|| |--3-2h0------0------|-----------------------------|
B|--0------3-3--3-----|| |--0------3-3--------|--0-----0----3-------------0-|
G|--0------2----2-----|| x2 |--0------2------4h2-|--0-----0----2-----0-----2---|
D|---------0----0-----|| |---------0----------|--2-----0----0-----2---------|
A|--2---x-------x-----|| |--2---x------x------|-----x--2--x----x--3-----x---|
E|------x-------x-----|| |------x------x------|--0--x-----x----x--------x---|

[Verse 3]

(o) (o) (o) (o) (o) (o) (o) (o) (o) (o)

e|-----------------|-------------------|----------------------|---------------|
B|---------------2-|-----------------0-|--0-0-0--0-0----------|--0----------0-|
G|--0-----0--------|--2-----0------0---|--0------0----2-2-0h2-|----2--0-0--0--|
D|--2-----0--------|--0-----0----------|--2------0--------0---|-------2-------|
A|-----x--2------x-|-----x--2------x---|------x--2----x-------|----x--3-------|
E|--0--x---------x-|-----x---------x---|--0---x-------x-------|----x----------|

(o) (o) (o) (o) (o) (o) (o) (o) (o)

e|---------------------|-------------------|-----------------------|------------------||
B|---------------------|----0----------0-0-|--0-0-0---0-0----------|--0-------------0-||
G|--0-----0------2-2-2-|--0-------0-0------|--0-------0----2-2-0h2-|----2---0-0---0---||
D|--2-----0------------|--2-------2--------|--2-------0--------0---|--------2---------||
A|-----x--2------x-----|-------x--3----x---|------x---2----x-------|----x---3-----x---||
E|--0--x---------x-----|-------x-------x---|--0---x--------x-------|----x---------x---||


[Pre-Chorus 2]

(o) (o) (o) (o) (o) (o) (o) (o) (o) (o) (o)

e|-----------------------|------------------------|---------------------------------sx-sx--sx-||
B|--0----------------0h3-|--3---3---------------0-|---------------------------------sx-sx--sx-||
G|--0---------2----------|--4-4---4--2h0------0---|--4h5h4---2h4h2----0-------------sx-sx--sx-||
D|--2-2h0-----0----------|--4---------------------|--2-------0--------2-------------sx-sx--sx-||
A|---------x---------x---|--2-----x--3--------x---|--------x-------x--3--x--3-------sx-sx--sx-||
E|--0------x---------x---|--------x-----------x---|--0-----x-------x-----x----------sx-sx--sx-||

[Chorus 2]

(o) (o) (o) (o) (o) (o)

e|--0-0-3--3-5-5-5----|--5~--sx-sx-sx--3-(3)h0----0-|--0-0-3--3-5-5-5-|--5h7h5-|
B|--0------0----------|--0~--sx-sx-sx--3--------3---|--0------0-------|--0-----|
G|--0------0----------|--0~--sx-sx-sx--2--------2---|--0------0-------|--0-----|
D|--------------------|--0~--sx-sx-sx--0--------0---|--0--------------|--0-----|
A|---------x--3-----x-|--2~--sx-sx-sx-----------x---|------x--3-----x-|--2-----|
E|-----0---x--------x-|------sx-sx-sx-----------x---|--0---x--------x-|--------|

(o) (o) (o) (o) (o) (o) (o)

e|-3-3--10--5h3-|----5----3---3-3-|--3-3h0----------10--5h3-|----5----3---3-3-|
B|-3------------|--0------0-5-----|--0--------3-3-----------|--0------0-5-----|
G|-2------------|--0------0-------|--0--------2-------------|--0------0-------|
D|-0------------|--2--------------|-----------0-------------|--2--------------|
A|-------x------|------x--3---x---|--2-----x---------x------|------x--3---x---|
E|-------x------|--0---x------x---|--------x---------x------|--0---x------x---|


[Bridge]

(o) (o) (o) (o) (o) (o) (o)

e|--3-2h0-----------0-|| |--3---5/7-----------------8--|--10-8h7-7h8--7---3-3-|
B|--0------3-3--3-----|| |--0--------------------------|---7-7---7------------|
G|--0------2----2-----|| x2 |--0-----------0--------------|---7-7---7------------|
D|---------0----0-----|| |--------------2--------------|---0-0---0----0-------|
A|--2---x-------x-----|| |-----------x--3--------x-----|---------x--------x---|
E|------x-------x-----|| |--3--------x-----------x-----|---------x--------x---|

(o) (o) (o) (o) (o) (o) (o) (o) (o)

e|--3---5/7----------------8-|--10h12h10-----15-------3-3-|--3--5/7----------------8-|
B|--0------------------------|--10------------------------|--0-----------------------|
G|--0-----------0------------|--11------------------------|--0---------0-------------|
D|--------------2------------|---0------------0-----------|------------2-------------|
A|-----------x--3-------x----|------------x-----------x---|---------x--3-------x-----|
E|--3--------x----------x----|------------x-----------x---|--0------x----------x-----|


(o) (o) (o) (o) (o) (o) (o)

e|--10-8h7--7h8--7---5-5-|--5h3------------------5-5-|--5/7-----------0-||
B|---7-7----7------------|--0------------------------|----------3-3-3---||
G|---7-7----7------------|--0-----5-----0------------|----------2---2---||
D|---0-0----0----0-------|--------------2------------|----------0---0---||
A|----------x--------x---|-----------x--3--------x---|--0----x------x---||
E|----------x--------x---|--0--------x-----------x---|-------x------x---||


[Chorus 3]

(o) (o) (o) (o) (o) (o)

e|--0-0-3--3-5-5-5-|--5~--sx-sx-sx--3-(3)h0----0-|--0-0-3--3-5-5-5-|--5h7h5-|
B|--0------0-------|--0~--sx-sx-sx--3--------3---|--0------0-------|--0-----|
G|--0------0-------|--0~--sx-sx-sx--2--------2---|--0------0-------|--0-----|
D|-----------------|--0~--sx-sx-sx--0--------0---|--0--------------|--0-----|
A|------x--3-----x-|--2~--sx-sx-sx-----------x---|------x--3-----x-|--2-----|
E|--0---x--------x-|------sx-sx-sx-----------x---|--0---x--------x-|--------|

(o) (o) (o) (o) (o) (o) (o)

e|-3-3--10--5h3-|----5----3---3-3-|--3-3h0----------10--5h3-|----5----3---3-3-|
B|-3------------|--0------0-5-----|--0--------3-3-----------|--0------0-5-----|
G|-2------------|--0------0-------|--0--------2-------------|--0------0-------|
D|-0------------|--2--------------|-----------0-------------|--2--------------|
A|-------x------|------x--3---x---|--2-----x---------x------|------x--3---x---|
E|-------x------|--0---x------x---|--------x---------x------|--0---x------x---|


Play last measure 2nd time like this to transition to Outro

(o) (o) (o) (o) (o) (o) (o) (o)(o)

e|--3-2h0-----------0-|| |--3-2h0------0------|-----------------------------|
B|--0------3-3--3-----|| |--0------3-3--------|--0-----0----3-------------0-|
G|--0------2----2-----|| x2 |--0------2------4h2-|--0-----0----2-----0-----2---|
D|---------0----0-----|| |---------0----------|--2-----0----0-----2---------|
A|--2---x-------x-----|| |--2---x------x------|-----x--2--x----x--3-----x---|
E|------x-------x-----|| |------x------x------|--0--x-----x----x--------x---|

[Outro]

(o) (o) (o) (o)

e|-----------------------------|
B|--0-----0-----3-----------0~-|
G|--0-----0-----2-----0-----0~-|
D|--2-----0-----0-----2-----2~-|
A|-----x--2--x-----x--3--x-----|
E|--0--x-----x-----x-----x--0~-|





************************************

| x Dead note
| h Hammer-on
| / Slide up
| ~ Vibrato

************************************
Song info
Hello
Adele
2001
  • Pop
  • Ballad
Alternative tracks
Similar songs
A Flor de Piel - Julio Iglesias
To Love Somebody - Michael Bolton
Amigo - Roberto Carlos
Massachusetts - Bee Gees

Hi! Hope you enjoy backing track experience.
If you want to help us in the development of the project, feel free to donate!