Rolling In The Deep - Adele
00:00 / 00:00
Tabs and lyrics
Tunning: Standard (E A D G B e)
Gtr 1 - acoustic
Gtr 2 - electric


Pretty easy song, but no one had tabbed it out yet so here it is. I will say though that
the timing is a little weird. Just play along with the song to get the hang of it.

[Intro]

Gtr 1
Cm
e|---------------------------------------------------|
B|---------------------------------------------------|
G|---------------------------------------------------|
D|---------------------------------------------------|
A|--10-10-10-10-10-10-10-10-10-10-10-10-10-10-10-10--|
E|--8--8--8--8--8--8--8--8--8--8--8--8--8--8--8--8---|
. . . . . . . . . . . . . . . .


[Verse]

Repeat this as necessary.

Gtr 1
Cm Gm Bb Gm Bb
e|--------------------------------------------------------------------------------|
B|--------------------------------------------------------------------------------|
G|--------------------------------------------------------------------------------|
D|--------------------------------------------------------------------------------|
A|--10-10-10-10-10-10-10-10--10-5-5-5-5-5-5-5--5-8-8-8-8-8-8-8--8-5-5-5-5--8-8-8--|
E|--8--8--8--8--8--8--8--8---8--3-3-3-3-3-3-3--3-6-6-6-6-6-6-6--6-3-3-3-3--6-6-6--|
. . . . . . . . . . . . . . . . . . . . . . . . . . .


[Pre-Chorus]

The guitar pretty much cuts out here on the track. (The bass gets louder to
make up for it.) The first part is most prominent, and follows the bass and the strum
pattern of the verse. The second follows the piano.

Part 1

Gtr 1
e|-------------------------------------------------------------------------|
B|-------------------------------------------------------------------------|
G|-------------------------------------------------------------------------|
D|-------------------------------------------------------------------------|
A|--6-6-6-6-6-6-6-6---8-8-8-8-8-8-8-8---5-5-5-5-5-5-5-5---6-6-6-6-6-6-6-6--|
E|--4-4-4-4-4-4-4-4---6-6-6-6-6-6-6-6---3-3-3-3-3-3-3-3---4-4-4-4-4-4-4-4--|
. . . . . . . . . . . . . . . . . . . . . . . . . . . . . . . .

Gtr 1
e|----------------------------------------------------------------------------|
B|----------------------------------------------------------------------------|
G|--------------------------------------------------------------3-3-3-3-3-----|
D|--------------------------------------------------------------5-5-5-5-5-----|
A|--6-6-6-6-6-6-6-6---8-8-8-8-8-8-8-8---5-5-5-5-5-5-5-5---5-5-5-5-5-5-5-5-----|
E|--4-4-4-4-4-4-4-4---6-6-6-6-6-6-6-6---3-3-3-3-3-3-3-3---3-3-3---------------|
. . . . . . . . . . . . . . . . . . . . . . . . . . .

Part 2

I posted the lyrics above the tablature to help show the timing for everything, but in
the end you're going to need to play along with the song.

The scars of your love remind me of us
G# Bb Gm
e|-------------------------------------------|
B|-------------------------------------------|
G|-------------------------------------------|
D|--6~--------------8~----------8-------5~---|
A|--6~--------------8~----------8-------5~---|
E|--4~--------------6~------------------3~---|

They keep me thinking that we almost had it all
G# G#
e|----------------------------------------------|
B|----------------------------------------------|
G|----------------------------------------------|
D|-----------6~---------------------------8-6~--|
A|-----------6~---------------------------8-6~--|
E|-----------4~---------------------------6-4~--|

The scars of your love, they leave me breathless
Bb Gm
e|-----------------------------------------|
B|-----------------------------------------|
G|-----------------------------------------|
D|--6-------6-8~---------------------8-5~--|
A|--6-------6-8~---------------------8-5~--|
E|--4-------4-6~---------------------6-3~--|

I can't help feeling
Gm
e|-----------------------------|
B|-----------------------------|
G|------3----------3-3-3-3-3---|
D|-----------5-5-5-5-5-5-5-5---|
A|-----------5-5-5-5-5-5-5-5---|
E|-----------------------------|


[Chorus]

Again, no guitar on the track. But you could strum this if you wanted to.
Repeat as necessary.
Cm Bb G# G# Bb
e|-----------------------------------------------------------------------------------|
B|-----------------------------------------------------------------------------------|
G|--5-5-5-5-5-5-5-5-----3-3-3-3-3-3-3-3-----5-5-5-5-5-5-5-5--------------------------|
D|--5-5-5-5-5-5-5-5-----3-3-3-3-3-3-3-3-----6-6-6-6-6-6-6-6-----6-6-6-6---8-8-8-8----|
A|--3-3-3-3-3-3-3-3-----1-1-1-1-1-1-1-1-----6-6-6-6-6-6-6-6-----6-6-6-6---8-8-8-8----|
E|--3-3-3-3-3-3-3-3-----1-1-1-1-1-1-1-1-----4-4-4-4-4-4-4-4-----4-4-4-4---6-6-6-6----|

Cm Bb G# G# Bb
e|------------------------------------------------------------------------------------|
B|------------------------------------------------------------------------------------|
G|--5-5-5-5-5-5-5-5-----3-3-3-3-3-3-3-3-----------------------------------------------|
D|--5-5-5-5-5-5-5-5-----3-3-3-3-3-3-3-3-----6-6-6-6-6-6-6-6-----6-6-6-6---8-8-8-8-----|
A|--3-3-3-3-3-3-3-3-----1-1-1-1-1-1-1-1-----6-6-6-6-6-6-6-6-----6-6-6-6---8-8-8-8-----|
E|--3-3-3-3-3-3-3-3-----1-1-1-1-1-1-1-1-----4-4-4-4-4-4-4-4-----4-4-4-4---6-6-6-6-----|


[Verse]

Repeat this as necessary.

Gtr 1
Cm Gm Bb Gm Bb
e|--------------------------------------------------------------------------------|
B|--------------------------------------------------------------------------------|
G|--------------------------------------------------------------------------------|
D|--------------------------------------------------------------------------------|
A|--10-10-10-10-10-10-10-10--10-5-5-5-5-5-5-5--5-8-8-8-8-8-8-8--8-5-5-5-5--8-8-8--|
E|--8--8--8--8--8--8--8--8---8--3-3-3-3-3-3-3--3-6-6-6-6-6-6-6--6-3-3-3-3--6-6-6--|
. . . . . . . . . . . . . . . . . . . . . . . . . . .


[Pre-Chorus]

The guitar pretty much cuts out here on the track. (The bass gets louder to
make up for it.) The first part is most prominent, and follows the bass and the strum
pattern of the verse. The second follows the piano.

Part 1

Gtr 1
e|-------------------------------------------------------------------------|
B|-------------------------------------------------------------------------|
G|-------------------------------------------------------------------------|
D|-------------------------------------------------------------------------|
A|--6-6-6-6-6-6-6-6---8-8-8-8-8-8-8-8---5-5-5-5-5-5-5-5---6-6-6-6-6-6-6-6--|
E|--4-4-4-4-4-4-4-4---6-6-6-6-6-6-6-6---3-3-3-3-3-3-3-3---4-4-4-4-4-4-4-4--|
. . . . . . . . . . . . . . . . . . . . . . . . . . . . . . . .

Gtr 1
e|----------------------------------------------------------------------------|
B|----------------------------------------------------------------------------|
G|--------------------------------------------------------------3-3-3-3-3-----|
D|--------------------------------------------------------------5-5-5-5-5-----|
A|--6-6-6-6-6-6-6-6---8-8-8-8-8-8-8-8---5-5-5-5-5-5-5-5---5-5-5-5-5-5-5-5-----|
E|--4-4-4-4-4-4-4-4---6-6-6-6-6-6-6-6---3-3-3-3-3-3-3-3---3-3-3---------------|
. . . . . . . . . . . . . . . . . . . . . . . . . . .

Part 2

I posted the lyrics above the tablature to help show the timing for everything, but in
the end you're going to need to play along with the song.

The scars of your love remind me of us
G# Bb Gm
e|-------------------------------------------|
B|-------------------------------------------|
G|-------------------------------------------|
D|--6~--------------8~----------8-------5~---|
A|--6~--------------8~----------8-------5~---|
E|--4~--------------6~------------------3~---|

They keep me thinking that we almost had it all
G# G#
e|----------------------------------------------|
B|----------------------------------------------|
G|----------------------------------------------|
D|-----------6~---------------------------8-6~--|
A|-----------6~---------------------------8-6~--|
E|-----------4~---------------------------6-4~--|

The scars of your love, they leave me breathless
Bb Gm
e|-----------------------------------------|
B|-----------------------------------------|
G|-----------------------------------------|
D|--6-------6-8~---------------------8-5~--|
A|--6-------6-8~---------------------8-5~--|
E|--4-------4-6~---------------------6-3~--|

I can't help feeling
Gm
e|-----------------------------|
B|-----------------------------|
G|------3----------3-3-3-3-3---|
D|-----------5-5-5-5-5-5-5-5---|
A|-----------5-5-5-5-5-5-5-5---|
E|-----------------------------|


[Chorus 2]

Pretty much the same as the first chorus, but the order of the chords change
at the end of it.
Cm Bb G# G# Bb
e|------------------------------------------------------------------------------------|
B|------------------------------------------------------------------------------------|
G|--5-5-5-5-5-5-5-5-----3-3-3-3-3-3-3-3-----5-5-5-5-5-5-5-5---------------------------|
D|--5-5-5-5-5-5-5-5-----3-3-3-3-3-3-3-3-----6-6-6-6-6-6-6-6-----6-6-6-6---8-8-8-8-----|
A|--3-3-3-3-3-3-3-3-----1-1-1-1-1-1-1-1-----6-6-6-6-6-6-6-6-----6-6-6-6---8-8-8-8-----|
E|--3-3-3-3-3-3-3-3-----1-1-1-1-1-1-1-1-----4-4-4-4-4-4-4-4-----4-4-4-4---6-6-6-6-----|

Cm Bb G# G# Bb
e|------------------------------------------------------------------------------------|
B|------------------------------------------------------------------------------------|
G|--5-5-5-5-5-5-5-5-----3-3-3-3-3-3-3-3-----5-5-5-5-5-5-5-5---------------------------|
D|--5-5-5-5-5-5-5-5-----3-3-3-3-3-3-3-3-----6-6-6-6-6-6-6-6-----6-6-6-6---8-8-8-8-----|
A|--3-3-3-3-3-3-3-3-----1-1-1-1-1-1-1-1-----6-6-6-6-6-6-6-6-----6-6-6-6---8-8-8-8-----|
E|--3-3-3-3-3-3-3-3-----1-1-1-1-1-1-1-1-----4-4-4-4-4-4-4-4-----4-4-4-4---6-6-6-6-----|

G# Bb Cm Bb
e|--------------------------------------------------------------------------------|
B|--------------------------------------------------------------------------------|
G|--5-5-5-5-5-5-5-5-------------------------5-5-5-5-5-5-5-5-----3-3-3-3-3-3-3-3---|
D|--6-6-6-6-6-6-6-6-----8-8-8-8-8-8-8-8-----5-5-5-5-5-5-5-5-----3-3-3-3-3-3-3-3---|
A|--6-6-6-6-6-6-6-6-----8-8-8-8-8-8-8-8-----3-3-3-3-3-3-3-3-----1-1-1-1-1-1-1-1---|
E|--4-4-4-4-4-4-4-4-----6-6-6-6-6-6-6-6-----3-3-3-3-3-3-3-3-----1-1-1-1-1-1-1-1---|

G# Bb
e|------------------------------------------------------------------------------|
B|------------------------------------------------------------------------------|
G|------------------------------------------------------------------------------|
D|--6-6-6-6-6-6-6-6---6-6-6-6-6-6-6-6-----8-8-8-8-8-8-8-8---8-8-8-8-8-8-8-8-----|
A|--6-6-6-6-6-6-6-6---6-6-6-6-6-6-6-6-----8-8-8-8-8-8-8-8---8-8-8-8-8-8-8-8-----|
E|--4-4-4-4-4-4-4-4---4-4-4-4-4-4-4-4-----6-6-6-6-6-6-6-6---6-6-6-6-6-6-6-6-----|


[Bridge/Verse 3]

The palm-muted part doesn't come in for this verse. Instead, there's
some solo guitar that, for the most part, is incredibly hard to hear. I tabbed what I
could accurately make out.

Throw your soul through every open door
e|---------------------|
B|---------------------|
G|---------------------|
D|---------------------|
A|---------------------|
E|---------------------|


Count your blessings to find what you look for
Gtr 2
e|-----------------------------------------|
B|---------------------------11b13---------|
G|---------------------------10b12---------|
D|-----------------------------------------|
A|-----------------------------------------|
E|-----------------------------------------|

Turn my sorrow into treasured gold
e|---------------------|
B|---------------------|
G|---------------------|
D|---------------------|
A|---------------------|
E|---------------------|

You pay me back in kind and reap just what you sow
Gtr 2
e|-----------------------------------------------------|
B|--------------------------4---6---8---11---13---13~--|
G|------------------------------------------------12~--|
D|-----------------------------------------------------|
A|-----------------------------------------------------|
E|-----------------------------------------------------|


After this the guitar cuts out altogether for a bit. Once the chorus picks up again,
repeat the chords for the first chorus and end on this.

e|-------|
B|-------|
G|---5---|
D|---5---|
A|---3---|
E|-------|

That's it! God bless. :)



************************************

| b Bend
| ~ Vibrato

************************************
Tunning: Standard (E A D G B e)
Artist: Adele
Song: Rolling In The Deep


Intro
E E E E E E E E E E E E E E E E
|------------------------------------|
|------------------------------------|
|-5-5-5-5-5-5-5-5-5-5-5-5-5-5-5-5----|
|-5-5-5-5-5-5-5-5-5-5-5-5-5-5-5-5----|
|-3-3-3-3-3-3-3-3-3-3-3-3-3-3-3-3----|
|------------------------------------|


Verse
E E E E E E E E E E E E E E E E E E E E E E E E E E E E E E E E
|--------------------------------------------------------------------|
|--------------------------------------------------------------------|
|-5-5-5-5-5-5-5-5-5--------------------------------------------------|
|-5-5-5-5-5-5-5-5-5-5-5-5-5-5-5-5-5-8-8-8-8-8-8-8-8-5-5-5-8-8-8-8----|
|-3-3-3-3-3-3-3-3-3-5-5-5-5-5-5-5-5-8-8-8-8-8-8-8-8-5-5-5-8-8-8-8----|
|-------------------3-3-3-3-3-3-3-3-6-6-6-6-6-6-6-6-3-3-3-6-6-6-6----|


E E E E E E E E E E E E E E E E E E E E E E E E E E E E E E E E
|--------------------------------------------------------------------|
|--------------------------------------------------------------------|
|-5-5-5-5-5-5-5-5-5--------------------------------------------------|
|-5-5-5-5-5-5-5-5-5-5-5-5-5-5-5-5-5-8-8-8-8-8-8-8-8-5-5-5-8-8-8-8----|
|-3-3-3-3-3-3-3-3-3-5-5-5-5-5-5-5-5-8-8-8-8-8-8-8-8-5-5-5-8-8-8-8----|
|-------------------3-3-3-3-3-3-3-3-6-6-6-6-6-6-6-6-3-3-3-6-6-6-6----|


E E E E E E E E E E E E E E E E E E E E E E E E E E E E E E E E
|--------------------------------------------------------------------|
|--------------------------------------------------------------------|
|-5-5-5-5-5-5-5-5-5--------------------------------------------------|
|-5-5-5-5-5-5-5-5-5-5-5-5-5-5-5-5-5-8-8-8-8-8-8-8-8-5-5-5-8-8-8-8----|
|-3-3-3-3-3-3-3-3-3-5-5-5-5-5-5-5-5-8-8-8-8-8-8-8-8-5-5-5-8-8-8-8----|
|-------------------3-3-3-3-3-3-3-3-6-6-6-6-6-6-6-6-3-3-3-6-6-6-6----|


E E E E E E E E E E E E E E E E E E E E E E E E E E E E E E E E
|--------------------------------------------------------------------|
|--------------------------------------------------------------------|
|-5-5-5-5-5-5-5-5-5--------------------------------------------------|
|-5-5-5-5-5-5-5-5-5-5-5-5-5-5-5-5-5-8-8-8-8-8-8-8-8-5-5-5-8-8-8-8----|
|-3-3-3-3-3-3-3-3-3-5-5-5-5-5-5-5-5-8-8-8-8-8-8-8-8-5-5-5-8-8-8-8----|
|-------------------3-3-3-3-3-3-3-3-6-6-6-6-6-6-6-6-3-3-3-6-6-6-6----|


Pre Chorus
E E E E E E E S S E E E E E E E S S
|-4-4-4-4-4-4-4-4-4-6-6-6-6-6-6-6-6-6----|
|-4-4-4-4-4-4-4-4-4-6-6-6-6-6-6-6-6-6----|
|-5-5-5-5-5-5-5-5-5-7-7-7-7-7-7-7-7-7----|
|-6-6-6-6-6-6-6-6-6-8-8-8-8-8-8-8-8-8----|
|-6-6-6-6-6-6-6-6-6-8-8-8-8-8-8-8-8-8----|
|-4-4-4-4-4-4-4-4-4-6-6-6-6-6-6-6-6-6----|


E E E E E E E S S E E E E E E E E
|-3-3-3-3-3-3-3-3-3-4-4-4-4-6-6-6-6----|
|-3-3-3-3-3-3-3-3-3-4-4-4-4-6-6-6-6----|
|-3-3-3-3-3-3-3-3-3-5-5-5-5-7-7-7-7----|
|-5-5-5-5-5-5-5-5-5-6-6-6-6-8-8-8-8----|
|-5-5-5-5-5-5-5-5-5-6-6-6-6-8-8-8-8----|
|-3-3-3-3-3-3-3-3-3-4-4-4-4-6-6-6-6----|


E E E E E E E S S E E E E E E E S S
|-4-4-4-4-4-4-4-4-4-6-6-6-6-6-6-6-6-6----|
|-4-4-4-4-4-4-4-4-4-6-6-6-6-6-6-6-6-6----|
|-5-5-5-5-5-5-5-5-5-7-7-7-7-7-7-7-7-7----|
|-6-6-6-6-6-6-6-6-6-8-8-8-8-8-8-8-8-8----|
|-6-6-6-6-6-6-6-6-6-8-8-8-8-8-8-8-8-8----|
|-4-4-4-4-4-4-4-4-4-6-6-6-6-6-6-6-6-6----|


E E E E E E E S S E E E E E E E E
|-3-3-3-3-3-3-3-3-3-3-3-3-3-3-3-3-3----|
|-3-3-3-3-3-3-3-3-3-3-3-3-3-3-3-3-3----|
|-3-3-3-3-3-3-3-3-3-4-4-4-4-4-4-4-4----|
|-5-5-5-5-5-5-5-5-5-3-3-3-3-3-3-3-3----|
|-5-5-5-5-5-5-5-5-5-5-5-5-5-5-5-5-5----|
|-3-3-3-3-3-3-3-3-3-3-3-3-3-3-3-3-3----|


Chorus
Q Q E E E Q E E E E E E E Q Q E E E Q E E E E E E E
|-3--3--3-3-3-6--6-6-6-6-6-6-6-4--4--4-4-4-4--4-4-4-6-6-6-6----|
|-4--4--4-4-4-6--6-6-6-6-6-6-6-4--4--4-4-4-4--4-4-4-6-6-6-6----|
|-5--5--5-5-5-7--7-7-7-7-7-7-7-5--5--5-5-5-5--5-5-5-7-7-7-7----|
|-5--5--5-5-5-8--8-8-8-8-8-8-8-6--6--6-6-6-6--6-6-6-8-8-8-8----|
|-3--3--3-3-3-8--8-8-8-8-8-8-8-6--6--6-6-6-6--6-6-6-8-8-8-8----|
|-------------6--6-6-6-6-6-6-6-4--4--4-4-4-4--4-4-4-6-6-6-6----|


Q Q E E E Q E E E E E E E Q Q E E E Q E E E E E E E
|-3--3--3-3-3-6--6-6-6-6-6-6-6-4--4--4-4-4-4--4-4-4-6-6-6-6----|
|-4--4--4-4-4-6--6-6-6-6-6-6-6-4--4--4-4-4-4--4-4-4-6-6-6-6----|
|-5--5--5-5-5-7--7-7-7-7-7-7-7-5--5--5-5-5-5--5-5-5-7-7-7-7----|
|-5--5--5-5-5-8--8-8-8-8-8-8-8-6--6--6-6-6-6--6-6-6-8-8-8-8----|
|-3--3--3-3-3-8--8-8-8-8-8-8-8-6--6--6-6-6-6--6-6-6-8-8-8-8----|
|-------------6--6-6-6-6-6-6-6-4--4--4-4-4-4--4-4-4-6-6-6-6----|


Verse
E E E E E E E E E E E E E E E E E E E E E E E E E E E E E E E E
|--------------------------------------------------------------------|
|--------------------------------------------------------------------|
|-5-5-5-5-5-5-5-5-5--------------------------------------------------|
|-5-5-5-5-5-5-5-5-5-5-5-5-5-5-5-5-5-8-8-8-8-8-8-8-8-5-5-5-8-8-8-8----|
|-3-3-3-3-3-3-3-3-3-5-5-5-5-5-5-5-5-8-8-8-8-8-8-8-8-5-5-5-8-8-8-8----|
|-------------------3-3-3-3-3-3-3-3-6-6-6-6-6-6-6-6-3-3-3-6-6-6-6----|


E E E E E E E E E E E E E E E E E E E E E E E E E E E E E E E E
|--------------------------------------------------------------------|
|--------------------------------------------------------------------|
|-5-5-5-5-5-5-5-5-5--------------------------------------------------|
|-5-5-5-5-5-5-5-5-5-5-5-5-5-5-5-5-5-8-8-8-8-8-8-8-8-5-5-5-8-8-8-8----|
|-3-3-3-3-3-3-3-3-3-5-5-5-5-5-5-5-5-8-8-8-8-8-8-8-8-5-5-5-8-8-8-8----|
|-------------------3-3-3-3-3-3-3-3-6-6-6-6-6-6-6-6-3-3-3-6-6-6-6----|


Pre Chorus
E E E E E E E S S E E E E E E E S S
|-4-4-4-4-4-4-4-4-4-6-6-6-6-6-6-6-6-6----|
|-4-4-4-4-4-4-4-4-4-6-6-6-6-6-6-6-6-6----|
|-5-5-5-5-5-5-5-5-5-7-7-7-7-7-7-7-7-7----|
|-6-6-6-6-6-6-6-6-6-8-8-8-8-8-8-8-8-8----|
|-6-6-6-6-6-6-6-6-6-8-8-8-8-8-8-8-8-8----|
|-4-4-4-4-4-4-4-4-4-6-6-6-6-6-6-6-6-6----|


E E E E E E E S S E E E E E E E E
|-3-3-3-3-3-3-3-3-3-4-4-4-4-6-6-6-6----|
|-3-3-3-3-3-3-3-3-3-4-4-4-4-6-6-6-6----|
|-3-3-3-3-3-3-3-3-3-5-5-5-5-7-7-7-7----|
|-5-5-5-5-5-5-5-5-5-6-6-6-6-8-8-8-8----|
|-5-5-5-5-5-5-5-5-5-6-6-6-6-8-8-8-8----|
|-3-3-3-3-3-3-3-3-3-4-4-4-4-6-6-6-6----|


E E E E E E E S S E E E E E E E S S
|-4-4-4-4-4-4-4-4-4-6-6-6-6-6-6-6-6-6----|
|-4-4-4-4-4-4-4-4-4-6-6-6-6-6-6-6-6-6----|
|-5-5-5-5-5-5-5-5-5-7-7-7-7-7-7-7-7-7----|
|-6-6-6-6-6-6-6-6-6-8-8-8-8-8-8-8-8-8----|
|-6-6-6-6-6-6-6-6-6-8-8-8-8-8-8-8-8-8----|
|-4-4-4-4-4-4-4-4-4-6-6-6-6-6-6-6-6-6----|


E E E E E E E S S E E E E E E E E
|-3-3-3-3-3-3-3-3-3-3-3-3-3-3-3-3-3----|
|-3-3-3-3-3-3-3-3-3-3-3-3-3-3-3-3-3----|
|-3-3-3-3-3-3-3-3-3-4-4-4-4-4-4-4-4----|
|-5-5-5-5-5-5-5-5-5-3-3-3-3-3-3-3-3----|
|-5-5-5-5-5-5-5-5-5-5-5-5-5-5-5-5-5----|
|-3-3-3-3-3-3-3-3-3-3-3-3-3-3-3-3-3----|


Chorus
Q Q E E E Q E E E E E E E Q Q E E E Q E E E E E E E
|-3--3--3-3-3-6--6-6-6-6-6-6-6-4--4--4-4-4-4--4-4-4-6-6-6-6----|
|-4--4--4-4-4-6--6-6-6-6-6-6-6-4--4--4-4-4-4--4-4-4-6-6-6-6----|
|-5--5--5-5-5-7--7-7-7-7-7-7-7-5--5--5-5-5-5--5-5-5-7-7-7-7----|
|-5--5--5-5-5-8--8-8-8-8-8-8-8-6--6--6-6-6-6--6-6-6-8-8-8-8----|
|-3--3--3-3-3-8--8-8-8-8-8-8-8-6--6--6-6-6-6--6-6-6-8-8-8-8----|
|-------------6--6-6-6-6-6-6-6-4--4--4-4-4-4--4-4-4-6-6-6-6----|


Q Q E E E Q E E E E E E E Q Q E E E Q E E E E E E E
|-3--3--3-3-3-6--6-6-6-6-6-6-6-4--4--4-4-4-4--4-4-4-6-6-6-6----|
|-4--4--4-4-4-6--6-6-6-6-6-6-6-4--4--4-4-4-4--4-4-4-6-6-6-6----|
|-5--5--5-5-5-7--7-7-7-7-7-7-7-5--5--5-5-5-5--5-5-5-7-7-7-7----|
|-5--5--5-5-5-8--8-8-8-8-8-8-8-6--6--6-6-6-6--6-6-6-8-8-8-8----|
|-3--3--3-3-3-8--8-8-8-8-8-8-8-6--6--6-6-6-6--6-6-6-8-8-8-8----|
|-------------6--6-6-6-6-6-6-6-4--4--4-4-4-4--4-4-4-6-6-6-6----|


Q Q E E E Q E E E E E E E Q Q E E E Q E E E E E E E
|-4--4--4-4-4-6--6-6-6-6-6-6-6-3--3--3-3-3-6--6-6-6-6-6-6-6----|
|-4--4--4-4-4-6--6-6-6-6-6-6-6-4--4--4-4-4-6--6-6-6-6-6-6-6----|
|-5--5--5-5-5-7--7-7-7-7-7-7-7-5--5--5-5-5-7--7-7-7-7-7-7-7----|
|-6--6--6-6-6-8--8-8-8-8-8-8-8-5--5--5-5-5-8--8-8-8-8-8-8-8----|
|-6--6--6-6-6-8--8-8-8-8-8-8-8-3--3--3-3-3-8--8-8-8-8-8-8-8----|
|-4--4--4-4-4-6--6-6-6-6-6-6-6-------------6--6-6-6-6-6-6-6----|


Q Q E E E Q E E E E E E E Q Q E E E Q E E E E E E E
|-4--4--4-4-4-4--4-4-4-4-4-4-4-6--6--6-6-6-6--6-6-6-6-6-6-6----|
|-4--4--4-4-4-4--4-4-4-4-4-4-4-6--6--6-6-6-6--6-6-6-6-6-6-6----|
|-5--5--5-5-5-5--5-5-5-5-5-5-5-7--7--7-7-7-7--7-7-7-7-7-7-7----|
|-6--6--6-6-6-6--6-6-6-6-6-6-6-8--8--8-8-8-8--8-8-8-8-8-8-8----|
|-6--6--6-6-6-6--6-6-6-6-6-6-6-8--8--8-8-8-8--8-8-8-8-8-8-8----|
|-4--4--4-4-4-4--4-4-4-4-4-4-4-6--6--6-6-6-6--6-6-6-6-6-6-6----|


Verse
E E E E E E E E E E E E E E E E E E E E E E E E E E E E E E E E
|--------------------------------------------------------------------|
|--------------------------------------------------------------------|
|-5-5-5-5-5-5-5-5-5--------------------------------------------------|
|-5-5-5-5-5-5-5-5-5-5-5-5-5-5-5-5-5-8-8-8-8-8-8-8-8-5-5-5-8-8-8-8----|
|-3-3-3-3-3-3-3-3-3-5-5-5-5-5-5-5-5-8-8-8-8-8-8-8-8-5-5-5-8-8-8-8----|
|-------------------3-3-3-3-3-3-3-3-6-6-6-6-6-6-6-6-3-3-3-6-6-6-6----|


E E E E E E E E E E E E E E E E E E E E E E E E E E E E E E E E
|--------------------------------------------------------------------|
|--------------------------------------------------------------------|
|-5-5-5-5-5-5-5-5-5--------------------------------------------------|
|-5-5-5-5-5-5-5-5-5-5-5-5-5-5-5-5-5-8-8-8-8-8-8-8-8-5-5-5-8-8-8-8----|
|-3-3-3-3-3-3-3-3-3-5-5-5-5-5-5-5-5-8-8-8-8-8-8-8-8-5-5-5-8-8-8-8----|
|-------------------3-3-3-3-3-3-3-3-6-6-6-6-6-6-6-6-3-3-3-6-6-6-6----|


Bridge
W W W H H
|-3--------6--------4--------4----6----|
|-4--------6--------4--------4----6----|
|-5--------7--------5--------5----7----|
|-5--------8--------6--------6----8----|
|-3--------8--------6--------6----8----|
|----------6--------4--------4----6----|


W H H E E E E E E E E E E E E E E E E
|-3--------6----6----4-4-4-4-4-4-4-4-4-4-4-4-6-6-6-6----|
|-4--------6----6----4-4-4-4-4-4-4-4-4-4-4-4-6-6-6-6----|
|-5--------7----7----5-5-5-5-5-5-5-5-5-5-5-5-7-7-7-7----|
|-5--------8----8----6-6-6-6-6-6-6-6-6-6-6-6-8-8-8-8----|
|-3--------8----8----6-6-6-6-6-6-6-6-6-6-6-6-8-8-8-8----|
|----------6----6----4-4-4-4-4-4-4-4-4-4-4-4-6-6-6-6----|


Chorus
Q Q E E E Q E E E E E E E Q Q E E E Q E E E E E E E
|-3--3--3-3-3-6--6-6-6-6-6-6-6-4--4--4-4-4-4--4-4-4-6-6-6-6----|
|-4--4--4-4-4-6--6-6-6-6-6-6-6-4--4--4-4-4-4--4-4-4-6-6-6-6----|
|-5--5--5-5-5-7--7-7-7-7-7-7-7-5--5--5-5-5-5--5-5-5-7-7-7-7----|
|-5--5--5-5-5-8--8-8-8-8-8-8-8-6--6--6-6-6-6--6-6-6-8-8-8-8----|
|-3--3--3-3-3-8--8-8-8-8-8-8-8-6--6--6-6-6-6--6-6-6-8-8-8-8----|
|-------------6--6-6-6-6-6-6-6-4--4--4-4-4-4--4-4-4-6-6-6-6----|


Q Q E E E Q E E E E E E E Q Q E E E Q E E E E E E E
|-3--3--3-3-3-6--6-6-6-6-6-6-6-4--4--4-4-4-4--4-4-4-6-6-6-6----|
|-4--4--4-4-4-6--6-6-6-6-6-6-6-4--4--4-4-4-4--4-4-4-6-6-6-6----|
|-5--5--5-5-5-7--7-7-7-7-7-7-7-5--5--5-5-5-5--5-5-5-7-7-7-7----|
|-5--5--5-5-5-8--8-8-8-8-8-8-8-6--6--6-6-6-6--6-6-6-8-8-8-8----|
|-3--3--3-3-3-8--8-8-8-8-8-8-8-6--6--6-6-6-6--6-6-6-8-8-8-8----|
|-------------6--6-6-6-6-6-6-6-4--4--4-4-4-4--4-4-4-6-6-6-6----|


Q Q E E E Q E E E E E E E Q Q E E E Q E E E E E E E
|-3--3--3-3-3-6--6-6-6-6-6-6-6-4--4--4-4-4-4--4-4-4-6-6-6-6----|
|-4--4--4-4-4-6--6-6-6-6-6-6-6-4--4--4-4-4-4--4-4-4-6-6-6-6----|
|-5--5--5-5-5-7--7-7-7-7-7-7-7-5--5--5-5-5-5--5-5-5-7-7-7-7----|
|-5--5--5-5-5-8--8-8-8-8-8-8-8-6--6--6-6-6-6--6-6-6-8-8-8-8----|
|-3--3--3-3-3-8--8-8-8-8-8-8-8-6--6--6-6-6-6--6-6-6-8-8-8-8----|
|-------------6--6-6-6-6-6-6-6-4--4--4-4-4-4--4-4-4-6-6-6-6----|


Q Q E E E Q E E E E E E E Q Q E E E Q E E E E E E E
|-3--3--3-3-3-6--6-6-6-6-6-6-6-4--4--4-4-4-4--4-4-4-6-6-6-6----|
|-4--4--4-4-4-6--6-6-6-6-6-6-6-4--4--4-4-4-4--4-4-4-6-6-6-6----|
|-5--5--5-5-5-7--7-7-7-7-7-7-7-5--5--5-5-5-5--5-5-5-7-7-7-7----|
|-5--5--5-5-5-8--8-8-8-8-8-8-8-6--6--6-6-6-6--6-6-6-8-8-8-8----|
|-3--3--3-3-3-8--8-8-8-8-8-8-8-6--6--6-6-6-6--6-6-6-8-8-8-8----|
|-------------6--6-6-6-6-6-6-6-4--4--4-4-4-4--4-4-4-6-6-6-6----|


W
|-3----|
|-4----|
|-5----|
|-5----|
|-3----|
|------|


www.guitarstars.biz
Tunning: Standard (E A D G B e)
my name:liran simanovsky
--3-3--------3-3----3-6-3-----------------------------|
------6-4-------6-4------6-4---4-4-3------------------|
----------5-5------5--------5-5------5-5--------------|
------------------------------------------------------|
------------------------------------------------------|
------------------------------------------------------|
Song info
Rolling In The Deep
Adele
2001
  • Funk / Soul
  • Pop
  • Vocal
Alternative tracks
Similar songs
My Love - Kovacs
Stay Awhile - Dusty Springfield
Words - Bee Gees
Sorry Not Sorry - Demi Lovato
Lovesong - Adele

Hi! Hope you enjoy backing track experience.
If you want to help us in the development of the project, feel free to donate!