Eat The Rich - Aerosmith
00:00 / 00:00
Tabs and lyrics
Tunning: Standard (E A D G B e)
Eat the Rich - Aerosmith(Get a Grip)
Tabbed by Slush
Standard tuning

This has been modified for one guitar.
I'll put in the second guitar part later.
Can someone please help me out on the solo?

h = hammer on
p = pull off
b = bend
r = release
~~ = vibrato
X = damp strings
x4 = play four times

Intro

e ---------------------------------
B ---------------------------------
G ---------------------------------
D -2--2----2--2----2--2----2--2----
A -2--2----2--2----2--2----2--2----
E -0--0----0--0----0--0----0--0---- x1

e ------------------------------------
B ------------------------------------
G ------------------------------------
D -----5~~-----------------------2--2-
A -5h7----5h7---------5----------2--2-
E ------------3~~-5/7---7--5--3--0--0- x4

Verse

Well I woke up... On the wrong side...
e -------------------------------------------------
B -------------------------------------------------
G -------------------------------------------------
D -------0~----------------------0~---------------X-
A ----2~----2~-------0~-2~----2~----2~-------0~-2~X-
E -0~----------0~-4~-------0~----------0~-4~------X- x4

Cos Im sick of... And Im sick of...
e --------------------------------------------------------
B --------------------------------------------------------
G --------------------------------------------------------
D -2----4------5----7--7brp5----2----4------5----7--7b~~~-
A -2----4------5----7--------7--2----4------5----7--------
E -0----2------3----5-----------0----2------3----5-------- x1

And I just cant... And I think I can do more...
e ---------------------------------------------------------
B ---------------------------------------------------------
G ---------------------------------------------------------
D -2----4------5----7------9-9-9-9-9-9-9-9-9-9-9-9-9-9-9-9-
A -2----4------5----7------9-9-9-9-9-9-9-9-9-9-9-9-9-9-9-9-
E -0----2------3----5------7-7-7-7-7-7-7-7-7-7-7-7-7-7-7-7- x1

Chorus

Eat... Theres only...
e -------------------------------
B -----------------------------5-
G -----------------------------4-
D -9--7---------7--------------2-
A -7--5---------5--9-------------
E -------5br~------7--5--3--0---- x4
Tunning: Standard (E A D G B e)
EAT THE RICH TAB
Tuning: Standard

[Intro]

e|----------------------------------|
B|----------------------------------|
G|----------------------------------|
D|--2--2----2--2----2--2----2--2----|
A|--2--2----2--2----2--2----2--2----|
E|--0--0----0--0----0--0----0--0----|

e|-------------------------------------|
B|-------------------------------------|
G|-------------------------------------|
D|------5~~-----------------------2--2-|
A|--5h7----5h7---------5----------2--2-|
E|-------------3~~-5/7---7--5--3--0--0-|(x4)

Riff played during verse:
Try to hit every note

e|------------------------------------------------------|
B|------------------------------------------------------|
G|------------------------------------------------------|
D|------------------------------------------------------|
A|---------------5p0------------------------------------|
E|---5p0---7p0---------7p0--4p0--5p0--6p0--7p0----------|


[Pre-Chorus]

e|---------------------------------------------------------|
B|---------------------------------------------------------|
G|---------------------------------------------------------|
D|--2----4------5----7--7brp5----2----4------5----7--7b~~~-|
A|--2----4------5----7--------7--2----4------5----7--------|
E|--0----2------3----5-----------0----2------3----5--------|


e|----------------------------------------------------------|
B|----------------------------------------------------------|
G|----------------------------------------------------------|
D|--2----4------5----7------9-9-9-9-9-9-9-9-9-9-9-9-9-9-9-9-|
A|--2----4------5----7------9-9-9-9-9-9-9-9-9-9-9-9-9-9-9-9-|
E|--0----2------3----5------7-7-7-7-7-7-7-7-7-7-7-7-7-7-7-7-|

[Chorus]

Eat... Theres only...
e|--------------------------------|
B|------------------------------5-|
G|------------------------------4-|
D|--9--7---------7--------------2-|
A|--7--5---------5--9-------------|
E|--------5br~------7--5--3--0----|(x4)

Sorry No Solo.



************************************

| ~ Vibrato
| h Hammer-on
| / Slide up
| p Pull-off
| br bend release
| pb Pre-bend
| brb Bend release bend

************************************
Tunning: Standard (E A D G B e)
Got everything but the solo(s) and some minor fills.
Everything should be right. You'll have to improvise the solos or find a tab for it elsewhere.

Intro
e ----------------------------------|
B -------------------------8--8\----|
G -4--4----4--4----4--4----7--7\----|
D -2--2----2--2----2--2----6--6\----|
A -2--2----2--2----2--2----7--7\----|
E -0--0----0--0----0--0-------------| x1


e ------------------------------------|
B ------------------------------------|
G ------------------------------4--4--|
D -----5~-----------------------2--2--|
A -5h7----5-7---------5---------2--2--|
E ------------3~-5/6---6--5--3--0--0--| x4

Verse
e --------------------------|
B --------------------------|
G --------------------------|
D --------------------------|
A -------5------------------|
E -0h7-7---7-0h4-4-5h7-7----| x8

Pre-Chorus
e --------------------------------------------------------|
B --------------------------------------------------------|
G --------------------------------------------------------|
D -2----4------5----7-----------2----4------5----7--------|
A -2----4------5----7-----------2----4------5----7--------|
E -0----2------3----5-----------0----2------3----5--------|

e ---------------------------------------------------------|
B ---------------------------------------------------------|
G ---------------------------------------------------------|
D -2----4------5----7------9-9-9-9-9-9-9-9-9-9-9-9-9-9-9-9-|
A -2----4------5----7------9-9-9-9-9-9-9-9-9-9-9-9-9-9-9-9-|
E -0----2------3----5------7-7-7-7-7-7-7-7-7-7-7-7-7-7-7-7-|


Chorus
e -------------------------------0-|
B -------------------------------0-|
G ---------------------------------|
D -9--7--7/9\7---7--4--------------|
A -7--5----------5--2--------------|
E -------5/7\5---------5--3--0-----| x4

And that's the end of it. Adding the octave part of the last chorus later.

Legend:

h = Hammer on

p = pull off

b = bend

~ = vibrato

x (number) = The amount of times it should be played.
Song info
Eat The Rich
Aerosmith
2001
  • Rock
  • Arena Rock
  • Hard Rock
Alternative tracks
Similar songs
Home Sweet Home - Mötley Crüe
Wicked Sensation - Lynch Mob
What Love Can Be - Kingdom Come
No Leaf Clover - Metallica
No One Like You - Scorpions

Hi! Hope you enjoy backing track experience.
If you want to help us in the development of the project, feel free to donate!