Mama Kin - Aerosmith
00:00 / 00:00
Tabs and lyrics
Tunning: Standard (E A D G B e)
MAMA KIN
As recorded by Aerosmith
(From the 1973 Album AEROSMITH)


Transcribed by Paul Bell

Words and Music by Steven Tyler



Gtr I (E A D G B E) - 'Joe Perry - overdrive electric'
Gtr II (E A D G B E) - 'Brad Whitford - overdrive electric'


Intro
Q=156
4/4
Gtr I
PM PM------------|
Q E E E E E E +E E E E E E E E +E E E E E E E E E E E E E E E E
|----------------|-------------------|-------------------|------------------|
|----------------|-------------------|-------------------|------------------|
|-9--9---7-9---4-|-(4)-4-4---2-4-----|-----------2---2---|------------------|
|-9--9---7-9---4-|-(4)-4-4---2-4-0-2-|-(2)-2-5-2-2-2-2---|------------------|
|-7--7-x-7-7---2-|-(2)-2-2---2-2-0-0-|-(0)-0-0-0-0-0-0-0-|-2-2-4-2-5-2-4-2--|
|----------------|-------------------|-----------------0-|-0-0-0-0-0-0-0-0--|


Gtr I
Q E E E E E E +E E E E E E E E
|------------------|--------------------|
|------------------|--------------------|
|-9----9---7-9---4-|-(4)--4-4---2-4-----|
|-9----9---7-9---4-|-(4)--4-4---2-4-0-2-|
|-7----7-x-7-7---2-|-(2)--2-2---2-2-0-0-|
|------------------|--------------------|
|
| Gtr II
| H.. E +H.. E
|------------------|--------------------|
|------------------|--------------------|
|-9--------------4-|-(4)--------------2-|
|-9--------------4-|-(4)--------------2-|
|-7--------------2-|-(2)--------------0-|
|------------------|--------------------|


PM PM-------------|
+E E E E E E E E E E E E E E E E
|--------------------|--------------------|
|--------------------|--------------------|
|------------2---2---|--------------------|
|-(2)--2-5-2-2-2-2---|--------------------|
|-(0)--0-0-0-0-0-0-0-|--2--2-4-2-5-2-4-2--|
|------------------0-|--0--0-0-0-0-0-0-0--|
|
| PM----------|
| +H.. E +E E E E E E E E
|--------------------|--------------------|
|--------------------|--------------------|
|-(2)----------------|--------------------|
|-(2)----------------|--------------------|
|-(0)--------------2-|-(2)-2-4-2-5-2-4-2--|
|------------------0-|-(0)-0-0-0-0-0-0-0--|


PM PM-------------|
Q E E E E E E +E E E E E E E E +E E E E E E E E E E E E E E E E
|----------------|-------------------|-------------------|--------------------|
|----------------|-------------------|-------------------|--------------------|
|-9--9---7-9---4-|-(4)-4-4---2-4-----|-----------2---2---|--------------------|
|-9--9---7-9---4-|-(4)-4-4---2-4-0-2-|-(2)-2-5-2-2-2-2---|--------------------|
|-7--7-x-7-7---2-|-(2)-2-2---2-2-0-0-|-(0)-0-0-0-0-0-0-0-|--2--2-4-2-5-2-4-2--|
|----------------|-------------------|-----------------0-|--0--0-0-0-0-0-0-0--|
|
| PM PM PM----------|
| Q E E E E E E +E E E E E E E E +E E E E E E E E +E E E E E E E E
|----------------|-------------------|-------------------|--------------------|
|----------------|-------------------|-------------------|--------------------|
|-9--9---7-9---4-|-(4)-4-4---2-4-----|-------------------|--------------------|
|-9--9---7-9-0-4-|-(4)-4-4---2-4-0-2-|-(2)-2-4p2-5p2-4---|--------------------|
|-7--7-7-7-7-0-2-|-(2)-2-2-2-2-2-0-0-|-(0)-0-0---0---0-2-|-(2)-2-4-2-5-2-4-2--|
|----------------|-------------------|-----------------0-|-(0)-0-0-0-0-0-0-0--|


PM
Q E E E E E E +E E E E E E E E +E E E E E E E E
|----------------|-------------------|-------------------|
|----------------|-------------------|-------------------|
|-9--9---7-9---4-|-(4)-4-4---2-4-----|-----------2---2---|
|-9--9---7-9---4-|-(4)-4-4---2-4-0-2-|-(2)-2-5-2-2-2-2---|
|-7--7-x-7-7---2-|-(2)-2-2---2-2-0-0-|-(0)-0-0-0-0-0-0-0-|
|----------------|-------------------|-----------------0-|
|
| PM PM
| Q E E E E E E +E E E E E E E E +E E E E E E E E
|----------------|-------------------|-------------------|
|----------------|-------------------|-------------------|
|-9--9---7-9---4-|-(4)-4-4---2-4-----|-------------------|
|-9--9---7-9-0-4-|-(4)-4-4---2-4-0-2-|-(2)-2-4p2-5p2-4---|
|-7--7-7-7-7-0-2-|-(2)-2-2-2-2-2-0-0-|-(0)-0-0---0---0-2-|
|----------------|-------------------|-----------------0-|


PM----------------| TP
E E E S S S S E E E E S S H.
|---------------------|----------------------||
|---------------------|----------------------||
|---------------------|----------------------||
|---------------------|----------------------||
|-2-2-4-2---------4-2-|--2------2/-----------||
|-0-0-0-0-0-0-0-0-0-0-|--0--0-0-0/-----------||
|
| PM------------|
| E E E E E E E E +E E E E E E E E
|---------------------|----------------------||
|---------------------|----------------------||
|---------------------|----------------------||
|---------------------|----------------------||
|---2-4-2---5---2-4-2-|-(2)-2----------------||
|---0-0-0---0---0-0-0-|-(0)-0---2--2-3-3-4-4-||


Guitar Solo
E Q +E E E E E E Q E +E E E E
|---14pb15r==(14)-------------|---------------------------|
|-----------------------12-11-|---------------------------|
|-----------------12p11-------|-14--12--------------12----|
|-----------------------------|----------14-(14)-14----14-|
|-----------------------------|---------------------------|
|-----------------------------|---------------------------|
|
| PM----------------|
| E E E E E E E E +E E E E E E E E
|-----------------------------|---------------------------|
|-----------------------------|---------------------------|
|-----------------------------|---------------------------|
|-2--2-----4p==2---5p=2--4----|---------------------------|
|-0--0-----0-------0-----0--2-|-(2)--2-4--2---5---2--4--2-|
|---------------------------0-|-(0)--0-0--0---0---0--0--0-|


E. S E. S Q E +E
|------------------------------------|
|---------12-----14b15---14pb15r(14)-|
|-14----x------x---------------------|
|------------------------------------|
|------------------------------------|
|------------------------------------|
|
| E E E E E E E E
|------------------------------------|
|------------------------------------|
|------------------------------------|
|--2--2----4p2----5p===2--4----------|
|--0--0----0------0-------0-------2--|
|---------------------------------0--|


e S S S S S S S S S S S S S S S S S S S S S S E Q E
|----------------------------------------------|-------------------------------------|
|-12-----14------14p12----14p12----14p12----14p|=12----14p12----14p12----14-12-------|
|--------12------12-------12-------12-------12-|-------12-------12---------------12--|
|-----14------14-------14-------14-------14----|----14-------14-------14-------------|
|----------------------------------------------|-------------------------------------|
|----------------------------------------------|-------------------------------------|
|
| PM--------------------------------| PM
| +E E E E E E E E E E E E E E E E
|----------------------------------------------|-------------------------------------|
|----------------------------------------------|-------------------------------------|
|----------------------------------------------|-------------------------------------|
|----------------------------------------------|-------------------------------------|
|-(2)--2----4-----2-----5-----2-----4-----2----|--------2-----4p====2-----5p=2-4p=2--|
|-(0)--0----0-----0-----0-----0-----0-----0----|--------0-----0-----------0----0-----|


|--3--|
Q +E E E S S S E E E E E E +E Q E
|-14pb15r==(14)12-------------------|----------------------------|
|-----------------15-14h15p14-12----|-----------12-(12)-12-------|
|--------------------------------12p|=11---------------------12\-|
|-----------------------------------|-----14-12------------------|
|-----------------------------------|----------------------------|
|-----------------------------------|----------------------------|
|
| PM----------------|
| E E E E E E E E +E E E E E E E E
|-----------------------------------|----------------------------|
|-----------------------------------|----------------------------|
|-----------------------------------|----------------------------|
|--2-----2---4p=2--5p=2--------4----|----------------------------|
|--0-----0---0-----0-----------0--2-|-(2)--2--4--2---5---2-4--2--|
|---------------------------------0-|-(0)--0--0--0---0---0-0--0--|


E Q +E E E E E Q. S S S S S S Q
|---4pb5r==(4)-2-------|-------------------------|
|----------------4-2---|-------------------------|
|--------------------2-|-1------1h2p1h2p1h2p1/---|
|----------------------|-------------------------|
|----------------------|-------------------------|
|----------------------|-------------------------|
|
| E E E E E E E E E E E E E E E E
|----------------------|-------------------------|
|----------------------|-------------------------|
|-2-2----2--2--2-2-2-2-|-2--2-2-2---2---2---2--2-|
|-4-4----4--4--4-4-4-4-|-4--4-4-4---4---4---4--4-|
|-4-4----4--4--4-4-4-4-|-4--4-4-4---4---4---4--4-|
|-2-2----2--2--2-2-2-2-|-2--2-2-2---2---2---2--2-|


E E Q E E E E E E E E +E +E E S S
|---7--9b10----------------|--------------------------------|
|-x------------7-----------|---------------------------7h10p|
|----------------7--7-9b10-|-----9----9b10==(9)r(9)--7------|
|--------------------------|--------------------------------|
|--------------------------|--------------------------------|
|--------------------------|--------------------------------|
|
| E E E E E E E E +E E E E E E E E
|--------------------------|--------------------------------|
|--------------------------|--------------------------------|
|--------------------------|--------------------------------|
|--------------------------|--------------------------------|
|-9-9-11p===9-12p9-11-9----|-(9)-9-11-9-----12---9--11------|
|-7-7--7-------7----7-7----|-(7)-9--9-9------9---9---9-0----|


E E E E E S S E E +E E e E +Q. E
|--------------------------|--------------------------||
|-7---7--------------------|--------------------------||
|---9---7-9b10-x-x-x-9b10==|=(9)r-x-9-9b11==(9)r------||
|--------------------------|--------------------------||
|--------------------------|--------------------------||
|--------------------------|--------------------------||
|
| E E E E E E E E E E Q H
|--------------------------|--------------------------||
|--------------------------|--------------------------||
|--------------------------|--------------------------||
|--------------------------|--------------------------||
|-5-5-6-6-7----7---8-8-----|--9-----------------------||
|-3-3-4-4-5----5---6-6-----|--7-----------------------||


Gtr I
PM PM PM PM--------------|
Q E E E E E E +E E E E E E E E +E E E E E E E E E E E E E E S S E
|----------------|-------------------|-------------------|-------------------|
|----------------|-------------------|-------------------|-------------------|
|-9--9-7-7-9---4-|-(4)-4-4---2-4---2-|-(2)-------2-------|-------------------|
|-9--9-7-7-9-9-4-|-(4)-4-4---2-4---2-|-(2)-2-4-2-2---2---|-------------------|
|-7--7-7-7-7---2-|-(2)-2-2-2-2-2-0-0-|-(0)-0-0-0-0-0-0-0-|-2-2-4-2-5-2-4-4-2-|
|----------------|-------------------|-----------------0-|-0-0-0-0-0-0-0-0-0-|


Gtr I
PM--------|
Q Q E Q E +E E E E E E E E +E E E E E E E E E E E E E E E E
|----------------|--------------------|-------------------|--------------------|
|----------------|--------------------|-------------------|--------------------|
|-9----9--7-9--4-|-(4)--4-4-4-2-4---2-|-(2)-------2-------|--------------------|
|-9----9--7-9--4-|-(4)--4-4-4-2-4---2-|-(2)-2-4-2-2---2---|-----------------2--|
|-7----7--7-7--2-|-(2)--2-2-2-2-2-0-0-|-(0)-0-0-0-0-0-0-2-|-----2-4-2-5-2-4-2--|
|----------------|--------------------|-----------------0-|-----0-0-0-0-0------|
|
| Gtr II
| PM PM--------|
| H.. E +H.. E +Q Q E E E E +E E E E E E E E
|----------------|--------------------|-------------------|--------------------|
|----------------|--------------------|-------------------|--------------------|
|-9------------4-|-(4)--------------2-|-(2)---2---2---2---|--------------------|
|-9------------4-|-(4)--------------2-|-(2)---2---2---2---|--------------------|
|-7------------2-|-(2)--------------0-|-(0)---0---0-0-0-2-|-(2)-2-4-2-5-2-4-2--|
|----------------|--------------------|-----------------0-|-(0)-0-0-0-0-0-0-0--|


Q Q +e Q. Q E E +E E E E
|--------------------------|----------------------------|
|--------------------------|----------------------------|
|--------------------------|----------------------------|
|--2----4b5====(4)r-2------|--4b5-----4b5==(4)r---4b5---|
|--2-----------------------|----------------------------|
|--------------------------|----------------------------|
|
| PM---------------| PM--------------|
| E E E E E E E E +E E E E E E E E
|--------------------------|----------------------------|
|--------------------------|----------------------------|
|--------------------------|----------------------------|
|--------------------------|----------------------------|
|-(2)-2-4----2--5---2--4-2-|-(2)--2-4-2-----5---2-4---2-|
|-(0)-0-0----0--0---0--0-0-|-(0)--0-0-0-----0---0-0---0-|


E e e e e S S Q
|----------------------------||
|----------------------------||
|----------------------------||
|-----4b4.5==4-4-4r-4p2-4/---||
|----------------------------||
|----------------------------||
|
| PM----------------|
| +E E E E E E E E
|----------------------------||
|----------------------------||
|----------------------------||
|----------------------------||
|-(2)-2------4-2-5--2---4--2-||
|-(0)-0------0-0-0--0---0--0-||


Verse 1
PM| PM PM| PM PM--------|
Q E E E E E E +E E E E E E E E +E E E E E E E E
|-----------------|-------------------|-------------------|
|-----------------|-------------------|-------------------|
|-9---9-----9---4-|-(4)---4-----4---2-|-(2)---------------|
|-9---9---7-9---4-|-(4)-4-4---2-4---2-|-(2)-2-4-2-2-4-2---|
|-7---7-7-7-7-7S2-|-(2)-2-2-2-2-2-0-0-|-(0)-0-0-0-0-0-0-2-|
|-----------------|-------------------|-----------------0-|
|
| E E Q H W H Q E E
|-----------------|-------------------|-------------------|
|-----------------|-------------------|-------------------|
|-----------------|-------------------|-------------------|
|-2---------------|-------------------|-----------------2-|
|-2---------------|-------------------|-----------------2-|
|-0---------------|-------------------|-----------------0-|


PM|
E E E E E E E E +E E E E E E S S E Q E E E E E E
|-------------------|---------------------|-----------------|
|-------------------|---------------------|-----------------|
|-------------------|---------------------|-9---9-----9---4-|
|-----------------2-|-(2)-----------------|-9---9---7-9---4-|
|-----2-4-2-5-2-4-2-|-(2)-2-4-2-5-2-4-4-2-|-7---7-7-7-7-7S2-|
|-----0-0-0-0-0-0-0-|-(0)-0-0-0-0-0-0-0-0-|-----------------|
|
| PM--------| PM------------|
| +E E E E E E E E +E E E E E E E E E E Q H
|-------------------|---------------------|-----------------|
|-------------------|---------------------|-----------------|
|-------------------|---------------------|-----------------|
|-(2)-------------2-|-(2)-----------------|-2---------------|
|-(2)-2-4-2-5-2-4-2-|-(2)-2-4-2-5-2-4---2-|-2---------------|
|-(0)-0-0-0-0-0-0-0-|-(0)-0-0-0-0-0-0---0-|-0---------------|


PM PM PM--------|
+E E E E E E E E +E E E E E E E E
|-------------------|-------------------|
|-------------------|-------------------|
|-(4)---4p2---4---2-|-(2)---------------|
|-(4)-4-4p2-2-4---2-|-(2)-2-4-2-2-4-2---|
|-(2)-2-2---2-2-0-0-|-(0)-0-0-0-0-0-0-2-|
|-------------------|-----------------0-|
|
| W H Q E E
|-------------------|-------------------|
|-------------------|-------------------|
|-------------------|-------------------|
|-------------------|-----------------2-|
|-------------------|-----------------2-|
|-------------------|-----------------0-|


+E E E E E E E E +E E E E E E S S E
|-------------------|---------------------|
|-------------------|---------------------|
|-------------------|---------------------|
|-----------------2-|-(2)-----------------|
|-(2)-2-4-2-5-2-4-2-|-(2)-2-4-2-5-2-4-4-2-|
|-(0)-0-0-0-0-0-0-0-|-(0)-0-0-0-0-0-0-0-0-|
|
| PM--------| PM------------|
| +E E E E E E E E +E E E E E E E E
|-------------------|---------------------|
|-------------------|---------------------|
|-------------------|---------------------|
|-(2)-------------2-|-(2)-----------------|
|-(2)-2-4-2-5-2-4-2-|-(2)-2-4-2-5-2-4---2-|
|-(0)-0-0-0-0-0-0-0-|-(0)-0-0-0-0-0-0---0-|


PM| PM PM| PM PM PM PM
Q E E E E E E +E E E E E E E E +E E E E E E E E
|-----------------|-------------------|-------------------|
|-----------------|-------------------|-------------------|
|-9---9-----9---4-|-(4)---4-----4---2-|-(2)---------------|
|-9---9---7-9---4-|-(4)-4-4---2-4---2-|-(2)-2-5-2-5p2-5---|
|-7---7-7-7-7-7S2-|-(2)-2-2-2-2-2-0-0-|-(0)-0-0-0-0---0---|
|-----------------|-------------------|-----------------0-|
|
| E E Q H W H Q E E
|-----------------|-------------------|-------------------|
|-----------------|-------------------|-------------------|
|-----------------|-------------------|-------------------|
|-2---------------|-------------------|-----------------2-|
|-2---------------|-------------------|-----------------2-|
|-0---------------|-------------------|-----------------0-|


PM-----------| PM--------|
E E E E E E E E E E E E E E E E
|-------------------|--------------------|
|-------------------|--------------------|
|-------------------|--------------------|
|-------------------|--------------------|
|--2--2-4-2-5-2-4-2-|-----2-4-2-5-2-4/---|
|--0--0-0-0-0-0-0-0-|-----0-0-0-0-0-0----|
|
| PM--------| PM-----------|
| +E E E E E E E E +E E E E E E E E
|-------------------|--------------------|
|-------------------|--------------------|
|-------------------|--------------------|
|-(2)-------------2-|-(2)----------------|
|-(2)-2-4-2-5-2-4-2-|-(2)-2-4-2-5-2-4--2-|
|-(0)-0-0-0-0-0-0-0-|-(0)-0-0-0-0-0-0--0-|


PM| PM PM| PM
Q E E E E E E +E E E E E E E E
|-----------------|--------------------|
|-----------------|--------------------|
|-9---9-----9---4-|-(4)---4-----4---2--|
|-9---9---7-9---4-|-(4)-4-4---2-4---2--|
|-7---7-7-7-7-7S2-|-(2)-2-2-2-2-2-0-0--|
|-----------------|--------------------|
|
| E E Q H W
|-----------------|--------------------|
|-----------------|--------------------|
|-----------------|--------------------|
|-2---------------|--------------------|
|-2---------------|--------------------|
|-0---------------|--------------------|


+E E E E E E E E +E E E E E E E E
|-------------------|-------------------|
|-------------------|-------------------|
|-(2)---------------|-------------------|
|-(2)-2-5-2-2-5-2---|-------------------|
|-(0)-0-0-0-0-0-0-2-|-(2)-2-4-2-5-2-4-2-|
|-----------------0-|-(0)-0-0-0-0-0-0-0-|
|
| PM--------|
| H Q E E +E E E E E E E E
|-------------------|-------------------|
|-------------------|-------------------|
|-------------------|-------------------|
|-----------------2-|-(2)-------------2-|
|-----------------2-|-(2)-2-4-2-5-2-4-2-|
|-----------------0-|-(0)-0-0-0-0-0-0-0-|


Pre-Chorus
PM-| PM----------|
E E E E E E E E E E E E E E E E
|-------------------||------------------|
|-------------------||------------------|
|-------------------||------------------|
|-------------------||-2----------------|
|-------4-2-5-2-4-2-||-0-0-0-0-0-0-0-2--|
|--0--0-0-0-0-0-0-0-||---------------0--|
|
| PM----------|
| +E E E E E E E E E E E E E E E E
|-------------------||------------------|
|-------------------||------------------|
|-------------------||------------------|
|-(2)---------------||-2-2-4p2-5p2-4----|
|-(2)-2-4-2-5-2-4-2-||-0-0-0---0---0-2--|
|-(0)-0-0-0-0-0-0-0-||---------------0--|


PM----------------------------------
E E E E E E E E E E E E E E E E
|-------------------|-----------------|
|-------------------|-----------------|
|-------------------|-----------------|
|-------------------|-2-2-4-2-5-2-4-2-|
|--2--2-4-2-5-2-4-2-|-0-0-0-0-0-0-0-0-|
|--0--0-0-0-0-0-0-0-|-----------------|
|
| PM----------------------------~~~
| +E E E E E E E E E E E E E E E E
|-------------------|-----------------|
|-------------------|-----------------|
|-------------------|-----------------|
|-------------------|-2-2-4-2-5-2-4---|
|-(2)-2-4-2-5-2-4-2-|-0-0-0-0-0-0-0---|
|-(0)-0-0-0-0-0-0-0-|---------------3-|


---------------------------------------------|
E E E E E E E E E E E E E E E E
|-------------------|---------------------------|
|-------------------|---------------------------|
|-------------------|---------------------------|
|-------------------|---------------------------|
|--2--------------2-|--2--2-4-2-----5--2----4-2-|
|--0--0-0-0-0-0-0-0-|--0--0-0-0-----0--0----0-0-|
|
|~~~~~
| +H. E E +Q. E +E S S Q
|-------------------|---------------------------|
|-------------------|---------------------------|
|-------------------|---------------------------|
|-------------------|---------------------------|
|-------------------|---------------------------|
|-(3)-----------3-0-|-(0)-----3b4==(3)-4p3rp0---|


E E E E E E E E +E E E E E E E E E E E E E E E E E E E E E E E S S
|-----------------|-------------------|-----------------|-------------------|
|-----------------|-------------------|-----------------|-------------------|
|-----------------|-------------------|-----------------|---3---3---3-3-----|
|-2-2-4-2-5-2-4---|-------------------|---4---4---4---4-|---4---4---4-4-----|
|-0-0-0-0-0-0-0-2-|-(2)-2-4-2-5-2-4-2-|---4---4---4---4-|---4---4---4-4-x-x-|
|---------------0-|-(0)-0-0-0-0-0-0-0-|---2---2---2---2-|---2---2---2-2-x-x-|
|
| PM----------|
| E E E E E E E E +E E E E E E E E E E E E E E E E E E E E E E E E
|-----------------|-------------------|-----------------|-------------------|
|-----------------|-------------------|-----------------|-------------------|
|-----------------|-------------------|-2-2-2-2-2-2-2-2-|-2-2-2-2-2-2-2-2---|
|-2-2-4p2-5p2-4---|-------------------|-4-4-4-4-4-4-4-4-|-4-4-4-4-4-4-4-4---|
|-0-0-0---0---0-2-|-(2)-2-4-2-5-2-4-2-|-4-4-4-4-4-4-4-4-|-4-4-4-4-4-4-4-4---|
|---------------0-|-(0)-0-0-0-0-0-0-0-|-2-2-2-2-2-2-2-2-|-2-2-2-2-2-2-2-2---|


H +E E E E +E E E E E E E E
|--------------------|----------------------|
|--------------------|----------------------|
|--------------------|----------------------|
|-9--------(9)7--8-9-|-(9)-9--9-9--9-9--9---|
|-9--------(9)7--8-9-|-(9)-9--9-9--9-9--9---|
|-7--------(7)-----7-|-(7)-7--7-7--7-7--7-x-|
|
| E E E E E E E E +E E E E E E E E
|--------------------|----------------------|
|--------------------|----------------------|
|--------------------|----------------------|
|--------------------|----------------------|
|-9-9-11p9-12p9-11-9-|-(9)-9-11-9-12-9-11---|
|-7-7--7----7----7-7-|-(7)-9--9-9--9-9--9-0-|


E E E E E S S E E Q Q E E Q
|-------------------|-----------------||
|-------------------|-----------------||
|-------------------|-----------------||
|-------------------|-----------x/----||
|-5-5-6-6-7-x-x-8-8-|-9\--------x/----||
|-3-3-4-4-5-x-x-6-6-|-7\--------------||
|
| E E E E E E E E E E Q H
|-------------------|-----------------||
|-------------------|-----------------||
|-------------------|-----------------||
|-------------------|-----------------||
|-5-5-6-6-7-7---8-8-|-9---------------||
|-3-3-4-4-5-5---6-6-|-7---------------||


Verse 2 & 3
$
PM| PM PM| PM
Q E E E E E E +E E E E E E E E +E E E E E E E E
|-----------------|-------------------|-------------------|
|-----------------|-------------------|-------------------|
|-9---9-----9---4-|-(4)---4-----4---2-|-(2)---------------|
|-9---9---7-9---4-|-(4)-4-4---2-4---2-|-(2)-2-5-2-2-5-2---|
|-7---7-7-7-7-7S2-|-(2)-2-2-2-2-2-0-0-|-(0)-0-0-0-0-0-0-2-|
|-----------------|-------------------|-----------------0-|
|
| E E Q H W H Q E E
|-----------------|-------------------|-------------------|
|-----------------|-------------------|-------------------|
|-----------------|-------------------|-------------------|
|-2---------------|-------------------|-----------------2-|
|-2---------------|-------------------|-----------------2-|
|-0---------------|-------------------|-----------------0-|


PM PM| PM
E E E E E E E E E E E E E E E E Q E E E Q E +E E E E E E E E
|-------------------|-------------------|-----------------|--------------------|
|-------------------|-------------------|-----------------|--------------------|
|-------------------|-------------------|-9---9p7---9\--4-|-(4)---4-----4---2--|
|-------------------|-------------------|-9---9p7-7-9\--4-|-(4)-4-4---2-4---2--|
|--2--2-4-2-5-2-4-2-|-----2-4-2-5-2-4-2-|-7---7---7-7\--2-|-(2)-2-2-2-2-2-0-0--|
|--0--0-0-0-0-0-0-0-|-----0-0-0-0-0-0-0-|-----------------|--------------------|
|
| PM--------| PM----------|
| +E E E E E E E E +E E E E E E E E E E Q H W
|-------------------|-------------------|-----------------|--------------------|
|-------------------|-------------------|-----------------|--------------------|
|-------------------|-------------------|-----------------|--------------------|
|-(2)-------------2-|-(2)---------------|-2---------------|--------------------|
|-(2)-2-4-2-5-2-4-2-|-(2)-2-4-2-5-2-4-2-|-2---------------|--------------------|
|-(0)-0-0-0-0-0-0-0-|-(0)-0-0-0-0-0-0-0-|-0---------------|--------------------|


PM----------------|
+E E E E E E E E E E E E E E E E
|-------------------|-------------------|
|-------------------|-------------------|
|-(2)---------------|-------------------|
|-(2)-2-4-2-2-5-2---|-----------------2-|
|-(0)-0-0-0-0-0-0-2-|--2--2-4-2-5-2-4-2-|
|-----------------0-|--0--0-0-0-0-0-0-0-|
|
| PM--------|
| H Q E E +E E E E E E E E
|-------------------|-------------------|
|-------------------|-------------------|
|-------------------|-------------------|
|-----------------2-|-(2)-------------2-|
|-----------------2-|-(2)-2-4-2-5-2-4-2-|
|-----------------0-|-(0)-0-0-0-0-0-0-0-|


Pre-Chorus
+E E E E E E E E E E E E E E E E
|-------------------||------------------|
|-------------------||------------------|
|-------------------||------------------|
|-(2)---------------||-2-2-4-2-5-2-4----|
|-(2)-2-4-2-5-2-4-2-||-0-0-0-0-0-0-0-2--|
|-(0)-0-0-0-0-0-0-0-||---------------0--|
|
| PM----------|
| +E E E E E E E E E E E E E E E E
|-------------------||------------------|
|-------------------||------------------|
|-------------------||------------------|
|-(2)---------------||-2-2-4p2-5p2-4----|
|-(2)-2-4-2-5-2-4-2-||-0-0-0---0---0-2--|
|-(0)-0-0-0-0-0-0-0-||---------------0--|


E E E E E E E E E E E E E E E E
|-----------------|-----------------|
|-----------------|-----------------|
|-----------------|-----------------|
|-----------------|-2-2-4-2-5-2-4-2-|
|---2-4-2-5-2-4-2-|-0-0-0-0-0-0-0-0-|
|---0-0-0-0-0-0-0-|-----------------|
|
| PM----------------------------~~~
| E E E E E E E E E E E E E E E E
|-----------------|-----------------|
|-----------------|-----------------|
|-----------------|-----------------|
|-----------------|-2-2-4-2-5-2-4---|
|-2-2-4-2-5-2-4-2-|-0-0-0-0-0-0-0---|
|-0-0-0-0-0-0-0-0-|---------------3-|


E E E E E E E E +E E E S S S S E E E
|-------------------|------------------------|
|-------------------|------------------------|
|-------------------|------------------------|
|-------------------|------------------------|
|--2--------------2-|-(2)--------------------|
|--0--0-0-0-0-0-0-0-|-(0)-0-0-0-0-2-2-2-3-4--|
|
|~~~~~
| +H. E E +H S S E Q
|-------------------|------------------------|
|-------------------|------------------------|
|-------------------|------------------------|
|-------------------|------------------------|
|-------------------|------------------------|
|-(3)-----------3-0-|-(0)---------0-0-0-0----|


PM----------------|
E E E E E E E E E E E E E E E E E E E E E E E E E E E E E E E E
|-----------------|-------------------|-----------------|------------------|
|-----------------|-------------------|-----------------|------------------|
|-----------------|-------------------|-----------------|---3---3---3-3----|
|-2-2-4-2-5-2-4---|-------------------|---4---4---4---4-|---4---4---4-4----|
|-0-0-0-0-0-0-0---|-----------------2-|---4---4---4---4-|---4---4---4-4----|
|---------------0-|--0--0-0-0-0-0-0-0-|---2---2---2---2-|---2---2---2-2----|
|
| PM----------|
| E E E E E E E E +E E E E E E E E E E E E E E E E E E E E E E E E
|-----------------|-------------------|-----------------|------------------|
|-----------------|-------------------|-----------------|------------------|
|-----------------|-------------------|-2-2-2-2-2-2-2-2-|-2-2-2-2-2-2-2-2--|
|-2-2-4p2-5p2-4---|-------------------|-4-4-4-4-4-4-4-4-|-4-4-4-4-4-4-4-4--|
|-0-0-0---0---0-2-|-(2)-2-4-2-5-2-4-2-|-4-4-4-4-4-4-4-4-|-4-4-4-4-4-4-4-4--|
|---------------0-|-(0)-0-0-0-0-0-0-0-|-2-2-2-2-2-2-2-2-|-2-2-2-2-2-2-2-2--|


2/4
Q Q E E E E +E E Q E E E E E E E E E E E E q q
|-----------7-7--7---|--------7---------7---|-----------------|-------||
|-----------7-7--7---|--------7-----------7-|-----------------|-------||
|-----------8-8--8---|--------8-------------|-----------------|-------||
|-9----9-----------9-|-(9)-9----------------|-9-9-x-x-x-x-x-x-|-------||
|-9----9-----------9-|-(9)-9-------9-9------|-9-9-x-x-x-x-x-x-|-9--9--||
|-7----7-----------7-|-(7)-7-------7-7------|-----------------|-7--7--||
|
| E E E E E E E E +E E E E E E E E E E E E E E E E q q
|--------------------|----------------------|-----------------|-------||
|--------------------|----------------------|-----------------|-------||
|--------------------|----------------------|-----------------|-------||
|--------------------|----------------------|-----------------|-------||
|-9-9-11p9-12p9-11-9-|-(9)-9-11-9-12-9-11---|-5-5-6-6-7-7-8-8-|-9--9--||
|-7-7--7----7----7-7-|-(7)-9--9-9--9-9--9-0-|-3-3-4-4-5-5-6-6-|-7--7--||


Chorus
4/4
Gtr I
Q Q H H q q Q Q H
|-------------|------------|-------------|
|-------------|------------|-------------|
|-9\----------|------------|-9\----------|
|-9\----------|------------|-9\----------|
|-7\----------|------9--9--|-7\----------|
|-------------|------7--7--|-------------|


H q q Q Q H H q q q Q H
|------------|-------------|------------|------------|
|------------|-------------|------------|------------|
|------------|-9\----------|------------|-9----------|
|------------|-9\----------|------------|-9----------|
|------9--9--|-7\----------|------9--9--|-7----------|
|------7--7--|-------------|------7--7--|------------|


Gtrs I, II
H q q Q E E +E E E E E E Q Q Q Q E E +E E E E 3x
|------------|------------------||---------------|--------------------||
|------------|------------------||o--------------|-------------------o||
|------------|------9-(9)-9---9-||--7-7----------|------9-(9)-9---9---||
|------------|-9----7-(7)-7---7-||--5-5-7--------|-9----7-(7)-7---7---||
|------9--9--|-7----------------||o-----5--9--9--|-7-----------------o||
|------7--7--|------------------||---------7--7--|--------------------||


Interlude (Sax Solo)
To Coda
2/4 4/4
Gtr I
E E Q H.. E E E E E E E S S E
|--------||-------------------|-------------------|
|--------||-------------------|-------------------|
|-7-7----||-------------------|-------------------|
|-5-5-7--||-5---------------5-|---5---5---5-5-5-5-|
|-----5--||-3---------------3-|---3---3---3-3-3-3-|
|--------||-------------------|-------------------|
|
| Gtr II
| E E Q E E E E E E E E E E E E E E E E
|--------||-------------------|-------------------|
|--------||-------------------|-------------------|
|-7-7----||-------------------|-------------------|
|-5-5-7--||-5---5-7-5-5-5-7-7-|-5-5-7-5-5-5-7---7-|
|-----5--||-3---3-3-3-3-3-3-3-|-3-3-3-3-3-3-3---3-|
|--------||-------------------|-------------------|


H. E E +E Q E +Q Q +E Q E Q E E
|-----------------|--------------------|--------------------|
|-----------------|--------------------|--------------------|
|-----------------|--------------------|-----------------/9-|
|-4-------------4-|-(4)-4---4-(4)--4---|-(4)-2-----2--------|
|-2p==========0-2-|-(2)-2---2-(2)------|---------0----------|
|-----------------|--------------------|--------------------|
|
| E E E E E E E E E E E E Q E E Q Q E E E E
|-----------------|--------------------|--------------------|
|-----------------|--------------------|--------------------|
|-----------------|--------------------|--------------------|
|-4-4-6-6-4-4-6-6-|--4--4-6-6--4-------|--2--------2-2----5-|
|-2-2-2-2-2-2-2-2-|--2--2-2-2--2-------|--0--------0-0------|
|-----------------|----------------3-4-|--------------------|


+E Q. E E E E +E E E E Q Q
|----------------------|-----17---17-17---14b14.5---|
|----------------------|-----17---17-17---14b14.5---|
|-(9)-9-------9--9-9-9-|-(9)------------------------|
|----------------------|----------------------------|
|----------------------|----------------------------|
|----------------------|----------------------------|
|
| +Q E E +E E Q Q Q E E E E
|----------------------|----------------------------|
|----------------------|----------------------------|
|----------------------|----------------------------|
|-(5)----5-4-(4)---4---|--2-----------2-2---------5-|
|----------------0-----|--0-----------0-0-----------|
|----------------------|----------------------------|


D.S. al Coda
~~~~~~~~~~~~~~~
E Q E +E Q +E
|---15----------------------||
|--------14-(14)------------||
|----------------12---(12)\-||
|---------------------------||
|---------------------------||
|---------------------------||
|
| Q E E +E E Q
|---------------------------||
|---------------------------||
|---------------------------||
|-5----5--4--(4)----4-------||
|-----------------0---------||
|---------------------------||


Outro
E=216
&
7/8 3/8
H. E E H. E Q E 6x
|------------------|----------------||--7------||
|------------------|----------------||o-7-----o||
|------------------|----------------||--7------||
|-5------------5-5-|-7--------------||--6------||
|-3------------3-3-|-5--------------||o-7-----o||
|------------------|--------------0-||------0--||
|
| E E E E E E E E E E E E E E E Q. 6x
|------------------|----------------||--7------||
|------------------|----------------||o-7-----o||
|------------------|----------------||--7------||
|-5--5-7-5-5-5-7-5-|-7--7-9-7-7-9---||--6------||
|-3--3-3-3-3-3-3-3-|-5--5-5-5-5-5---||o-7-----o||
|------------------|----------------||---------||


4/4
E E E W +W W
|-7-----|----------|------------|-------------*|
|-7-----|----------|------------|-------------*|
|-7-----|-9--------|-(9)--------|-------------*|
|-6-----|-9--------|-(9)--------|-------------*|
|-7-----|-7--------|-(7)--------|-------------*|
|---0-0-|----------|------------|-------------*|
|
| Q E W +W Q Q H
|-7-----|----------|------------|-------------*|
|-7-----|----------|------------|-------------*|
|-7-----|-9--------|-(9)--------|-9\----------*|
|-6-----|-9--------|-(9)--------|-9\----------*|
|-7-----|-7--------|-(7)--------|-7\----------*|
|-------|----------|------------|-0-----------*|


Fill 1
Q=156
PM------------~~~~~~~~
E E E E E E E E +H. E E +E E E E E E E E
|-----------------|--------------|-------------------|
|-----------------|--------------|-------------------|
|-----------------|--------------|-------------------|
|-2-2-4-2-5-2-4---|--------------|-------------------|
|-0-0-0-0-0-0-0---|--------------|-------------------|
|---------------3-|-(3)------3-0-|-(0)-0-2-2-3-3-4-4-|


Fill 2
E E E E E E E E E E E E E E E E E E E E E E E E
|---2---2---2---2-|---2---2---2-2-2-|-7-7-7-7-7-7-7-7-|
|---2---2---2---2-|---2---2---2-2-2-|-7-7-7-7-7-7-7-7-|
|---3---3---3---3-|---3---3---3-3-3-|-8-8-8-8-8-8-8-8-|
|-----------------|-----------------|-----------------|
|-----------------|-----------------|-----------------|
|-----------------|-----------------|-----------------|


+Q Q +E E E E E S S E S S E S S E E
|-(7)--7--(7)-7-7-7-|-----------------------|
|-(7)--7--(7)-7-7-7-|-----------------------|
|-(8)--8--(8)-8-8-8-|-----------------------|
|-------------------|-5-----6-----7-----8-8-|
|-------------------|-5-----6-----7-----8-8-|
|-------------------|-3-x-x-4-x-x-5-x-x-6-6-|




--------------------------------------------------------------------------------


Duration Legend
---------------
W - whole; H - half; Q - quarter; E - 8th; S - 16th; T - 32nd; X - 64th; a - acciaccatura
+ - note tied to previous; . - note dotted; .. - note double dotted
Uncapitalized letters represent notes that are staccato (1/2 duration)
Irregular groupings are notated above the duration line
Duration letters will always appear directly above the note/fret number it represents the
duration for. Duration letters with no fret number below them represent rests. Multi-
bar rests are notated in the form Wxn, where n is the number of bars to rest for. Low
melody durations appear below the staff

Tablature Legend
----------------
h - hammer-on
p - pull-off
b - bend
pb - pre-bend
r - bend release (if no number after the r, then release immediately)
/\ - slide into or out of (from/to "nowhere")
s - legato slide
S - shift slide
- natural harmonic
[n] - artificial harmonic
n(n) - tapped harmonic
~ - vibrato
tr - trill
T - tap
TP - trem. picking
PM - palm muting
\n/ - tremolo bar dip; n = amount to dip
\n - tremolo bar down
n/ - tremolo bar up
/n\ - tremolo bar inverted dip
= - hold bend; also acts as connecting device for hammers/pulls
- volume swell (louder/softer)
x - on rhythm slash represents muted slash
o - on rhythm slash represents single note slash

Misc Legend
-----------
| - bar
|| - double bar
||o - repeat start
o|| - repeat end
*| - double bar (ending)
: - bar (freetime)
$ - Segno
& - Coda
Tempo markers - = BPM(8/16=s8/s16), where s8 = swing 8ths, s16 = swing 16ths
Tunning: Standard (E A D G B e)
#----------------------------------PLEASE NOTE---------------------------------#
#This file is the author's own work and represents their interpretation of the #
#song. You may only use this file for private study, scholarship, or research. #
#------------------------------------------------------------------------------#

MAMA KIN
As recorded by Aerosmith
(From the 1973 Album AEROSMITH)

Transcribed by tonedeafidiot


Words and Music by Steve Tyler

B5
7 9 x x x x

E5
0 7 9 x x x

E5(type 2)
x 7 9 x x x

Gtr I (E A D G B E) - 'Joe Perry'
Gtr II (E A D G B E) - 'Brad Whitford'
Gtr III (E A D G B E) - 'Joe Perry Dub w/ Slide'

Intro
Moderately Fast Q=156
4/4
Gtr I
PM------------|
Q E E E E E E +E E E E E E E E +E E E E E E E E E E E E E E E E
|----------------|-------------------|-------------------|------------------|
|----------------|-------------------|-------------------|------------------|
|-9--9-----9---4-|-(4)---4-----4---2-|-(2)---0---2---2---|------------------|
|-9--9---7-9---4-|-(4)-4-4---2-4-0-2-|-(2)-2-0-2-2p0-2---|------------------|
|-7--7---7-7---2-|-(2)-2-2---2-2-0-0-|-(0)-0---0-----0-2-|-x-2-4---5-2-4----|
|----------------|-------------------|-----------------0-|-x-0-0-0-0-0-0-0--|


Q E E E Q E E E E E E E E E
|-----------------|--------------------|
|-----------------|--------------------|
|-9--9-------9S=4-|--4-----4-----4---2-|
|-9--9----7--9S=4-|--4---4-4---2-4-0-2-|
|-7--7----7--7S=2-|--2---2-2---2-2-0-0-|
|-----------------|--------------------|
|
| Gtr II
| H +E Q E +H.. E
|-----------------|--------------------|
|-----------------|--------------------|
|-9------(9)----4-|-(4)----------------|
|-9------(9)----4-|-(4)--------------2-|
|-7------(7)----2-|-(2)--------------0-|
|-----------------|--------------------|


PM PM-------------|
+E E E E E E E E E E E E E E E E
|--------------------|--------------------|
|--------------------|--------------------|
|-(2)--------2-------|--------------------|
|-(2)--2-0---2-0-2---|--------------------|
|-(0)--0-0-0-0-0-0-2-|--2--2-4-2-5---4----|
|------------------0-|--0--0-0-0-0-0-0-0--|
|
| +H.. E +E E E E E E E E
|--------------------|--------------------|
|--------------------|--------------------|
|--------------------|--------------------|
|-(2)----------------|--------------------|
|-(0)--------------2-|-(2)-2-4p2-5p2-4----|
|------------------0-|-(0)-0-0---0---0----|


PM| PM
Q E E E E E E +E E E E E E E E +E E E E E E E E E E E E E E E S S
|----------------|-------------------|-------------------|---------------------|
|----------------|-------------------|-------------------|---------------------|
|-9--9-----9---4-|-(4)---4-------0-2-|-(2)---------------|-----------------x-x-|
|-9--9---7-9S4-4-|-(4)-4-4---2-4-0-2-|-(2)-2-0-2-2-0-2---|-----------------x-x-|
|-7--7-7-7-7S0-2-|-(2)-2-2-2-2-2---0-|-(0)-0-0-0-0-0-0-2-|--x--2-4-2-5-2-4-x-x-|
|----------------|-------------------|-----------------0-|--x--0-0-0-0-0-0-----|
|
| Q E E E E E E +E E E E E E E E +E E E E E E E E +E E E E E E E E
|----------------|-------------------|-------------------|---------------------|
|----------------|-------------------|-------------------|---------------------|
|----------------|-------------------|-------------------|---------------------|
|-9--9---9-9---4-|-(4)-4-4---4-4---2-|-(2)-2-4p2-5---4---|---------------------|
|-7--7---7-7---2-|-(2)-2-2---2-2---0-|-(0)-0-0---0---0-2-|-(2)-2-4p2-5---4-----|
|----------------|-------------------|-----------------0-|-(0)-0-0---0---0-----|


PM PM PM
Q E E E E E E +E E E E E E E E +E E E E E E E E
|----------------|-------------------|-------------------|
|----------------|-------------------|-------------------|
|-9--9---------4-|-(4)---------------|-------------------|
|-9--9---7-9S4-4-|-(4)---4---2-4-0-2-|-(2)-2-0-2-2-0-2---|
|-7--7-7-7-7S0-2-|-(2)-2-2---2-2-0-0-|-(0)-0-0-0-0-0-0-2-|
|----------------|-------------------|-----------------0-|
|
| Q E E E E E E +E E E E E E E E +E E E E E E E E
|----------------|-------------------|-------------------|
|----------------|-------------------|-------------------|
|----------------|-------------------|-------------------|
|-9--9---9-9---4-|-(4)-4-4---4-4---2-|-(2)-2-4p2-5---4---|
|-7--7---7-7---2-|-(2)-2-2---2-2---0-|-(0)-0-0---0---0-2-|
|----------------|-------------------|-----------------0-|


PM--------------------------------------------------|
E E E S S E E E E E S S S S S S S S S S S S S S
|---------------------|-------------------------------------|
|---------------------|-------------------------------------|
|---------------------|-------------------------------------|
|---------------------|-------------------------------------|
|--x--2-4-x-x-5-x-4-2-|--2----------------------------------|
|--x--0-0-0-0-0-0-0-0-|--0--2-2s3s4s5s6s7s8s9s10s11s12-12---|
|
| +E E E E E E E E +E E E E E E E E
|---------------------|-------------------------------------|
|---------------------|-------------------------------------|
|---------------------|-------------------------------------|
|---------------------|-------------------------------------|
|-(2)-2-4p2---5---4-2-|-(2)-2---4-------5---------4p====0---|
|-(0)-0-0-----0---0-0-|-(0)-0---0-------0---------0---------|


E E +E +E E E E E
|---14b15==(14)r(14)-------------|
|--------------------------12p11-|
|--------------------12p11-------|
|--------------------------------|
|--------------------------------|
|--------------------------------|
|
| E E E E E E E E
|--------------------------------|
|--------------------------------|
|--------------------------------|
|-2--2-------4--------5p=2--4----|
|-0--0-------0--------0-----0--2-|
|------------------------------0-|


E E +E E +E E E E E E E S S a +E. S a +E +E
|----------------------------------|----------------------------------------------|
|----------------------------------|-------12-----14b15-(14)-----14b15==(14)r(14)p|
|-14p=12-(12)b12.5-----------12----|-14-------x-----------------------------------|
|------------------14-(14)14----14-|----14------0---------------------------------|
|----------------------------------|----------------------------------------------|
|----------------------------------|----------------------------------------------|
|
| +E E E E E E E E E E E E E E E E
|----------------------------------|----------------------------------------------|
|----------------------------------|----------------------------------------------|
|----------------------------------|----------------------------------------------|
|----------------------------------|--2--2--4p2-----------5---------------4-------|
|-(2)--2---4p=======2---5p=2--4----|--0--0--0-------------0---------------0----2--|
|-(0)--0---0------------0-----0----|-------------------------------------------0--|


E S S S S S S S S S S S S S S
|----------------------------------------------|
|-12----14------14-------14-------14-------14--|
|----------x-------14-------14-------14--------|
|----14------14-------14-------14-------14-----|
|----------------------------------------------|
|----------------------------------------------|
|
| E E E E E E E E
|----------------------------------------------|
|----------------------------------------------|
|----------------------------------------------|
|----------------------------------------------|
|-----2----4p====2-----5-----------4-----2-----|
|-----0----0-----------0-----------0-----0-----|


~~
S S S S S S S S E Q E
|-------------------------------------|
|--------14-------14-------14-12------|
|-12--------12-------12------------12-|
|-----14-------14-------14------------|
|-------------------------------------|
|-------------------------------------|
|
| +E E E E E E E E
|-------------------------------------|
|-------------------------------------|
|-------------------------------------|
|-------------------------------------|
|-(2)-----2-----4-----------5--x-4p=0-|
|-(0)-----0-----0-----------0--0-0----|


a +Q +E E E E E E E E E E +E Q E
|-14b15==(14)r==(14)p12-------------|-----------------------------|
|-----------------------15p14p12----|-----------12-(12)-12--------|
|--------------------------------12p|=11---------------------12s==|
|-----------------------------------|-----14p12-------------------|
|-----------------------------------|-----------------------------|
|-----------------------------------|-----------------------------|
|
| E E E E E E E E +E E E E E E E E
|-----------------------------------|-----------------------------|
|-----------------------------------|-----------------------------|
|-----------------------------------|-----------------------------|
|----------2--2---4------5--x--4----|-----------------------------|
|----------0--0---0------0--0--0--2-|-(2)--2--4------5-----4--x---|
|---------------------------------0-|-(0)--0--0------0-----0--0---|


Q a +E +E E E E E Q. S S S S S S Q
|-----4b5==(4)r(4)p2-------|------------------------|
|--------------------4p2---|------------------------|
|-2----------------------2p|=1------1h2p1h2p1h2p1/--|
|--------------------------|------------------------|
|--------------------------|------------------------|
|--------------------------|------------------------|
|
| E E E E E E E E E E E E E E Q
|--------------------------|------------------------|
|--------------------------|------------------------|
|--------------------------|------------------------|
|--------------------------|------------------------|
|-4-4-------4---4--4-4-4-4-|-4--4-4-4---4---4---4---|
|-2-2-------2---2--2-2-2-2-|-2--2-2-2---2---2---2---|


E E a +Q E Q E
|---7-9b10-(9)------------------|
|-----------------7-------------|
|-------------------7----9b9.5--|
|-------------------------------|
|-------------------------------|
|-------------------------------|
|
| E E E E E E E E
|-------------------------------|
|-------------------------------|
|-------------------------------|
|-------------------------------|
|-9-9------11----12---11-9------|
|-7-7-------7-----7----7-7------|


E a +E E a +E +Q E S S
|------------------------------------------|
|-------------------------------------7h10p|
|-----9b10-(9)----9b9.5==(9)r(9)p===7------|
|------------------------------------------|
|------------------------------------------|
|------------------------------------------|
|
| +E E E E E E E E
|------------------------------------------|
|------------------------------------------|
|------------------------------------------|
|------------------------------------------|
|-(9)-------9--11---------9--12--x-11------|
|-(7)-------7---7---------7---7--7--7p0----|


E E E E a +E S S E E +E E E E +Q. +e
|------------------------------|----------------------------|
|-7---7------------------------|----------------------------|
|---9---7-9b10-(9)-x-x-x-9b9.5-|-(9)-x---9-9b11==(9)r==(9)--|
|------------------------------|----------------------------|
|------------------------------|----------------------------|
|------------------------------|----------------------------|
|
| E E E E E E E E E H..
|------------------------------|----------------------------|
|------------------------------|----------------------------|
|------------------------------|----------------------------|
|------------------------------|----------------------------|
|-5-5-6-6-------7--7---8-8-----|--9-------------------------|
|-3-3-4-4-------5--5---6-6-----|--7-------------------------|


PM PM PM--------| PM--------|
Q E E E E E E +E E E E E E E E +E E E E E E E E E E E E E E E E
|----------------|-------------------|-------------------|------------------|
|----------------|-------------------|-------------------|------------------|
|-9--9---7-9---4-|-(4)---4---------2-|-(2)-2-------------|------------------|
|-9--9-7-7-9S4-4-|-(4)---4---2-4---2-|-(2)-2-0-2-2-0-2---|-------------4s9--|
|-7--7-7-7-7---2-|-(2)-2-2-2-2-2-0-0-|-(0)-4-0-0-0-0-0-2-|-2-2-4-2-5-2-2s7--|
|----------------|-------------------|-----------------0-|-0-0-0-0-0-0-0----|


PM PM
Q E E E E E E +E E E E E E E E
|------------------|--------------------|
|------------------|--------------------|
|-9--9----7--9-----|--------------------|
|-9--9-7--7--9S4-4-|-(4)----4---2-4---2-|
|-7--7-7--7--7---2-|-(2)--2-2-2-2-2-0-0-|
|------------------|--------------------|
|
| Gtr II
| H +E Q E +H.. E
|------------------|--------------------|
|------------------|--------------------|
|-9------(9)-----4-|-(4)--------------2-|
|-9------(9)-----4-|-(4)--------------2-|
|-7------(7)-----2-|-(2)--------------0-|
|------------------|--------------------|


PM--------| PM---------|
+E E E E E E E E E E E E E E E E
|-------------------|--------------------|
|-------------------|--------------------|
|-------------------|--------------------|
|-(2)-2-0-2-2---2---|-----------------2--|
|-(0)-4-0-0-0-0-0-2-|--2--2-4-2-5-2-x-2--|
|-----------------0-|--0--0-0-0-0-0-x----|
|
| +Q E E E E E E +E E E E E E E E
|-------------------|--------------------|
|-------------------|--------------------|
|-(2)---------------|--------------------|
|-(2)---4p2-5---4---|--------------------|
|-(0)---0---0---0-2-|-(2)-2-4---5---4-2--|
|-----------------0-|-(0)-0-0---0---0-0--|


~~
+Q E +E E Q. E +E E E +E E E E
|------------------------|--------------------------|
|------------------------|--------------------------|
|------------------------|--------------------------|
|-(2)---4b5-(4)-x-2------|--4b5-(4)---4b5-(4)---4---|
|-(2)-----------x--------|--------------------------|
|------------------------|--------------------------|
|
| PM
| +E E E E E E E E +E E E E E E E E
|------------------------|--------------------------|
|------------------------|--------------------------|
|------------------------|--------------------------|
|------------------------|--------------------------|
|-(2)-2-4-------5----4-2-|-(2)---2--4------5----4-2-|
|-(0)-0-0-------0----0-0-|-(0)---0--0------0----0-0-|


E E E E E E Q
|-----------------------------||
|-----------------------------||
|-----------------------------||
|-----[4]-[4]-[4]-[4]-[4]-4/--||
|-----------------------------||
|-----------------------------||
|
| PM
| +E E E E E E E E
|-----------------------------||
|-----------------------------||
|-----------------------------||
|-----------------------------||
|-(2)--2---4-------5------4p2-||
|-(0)--0---0-------0------0---||


Verse
PM PM PM PM--| PM-----------|
Q E E E E E E +E E E E E E E E +E E E E E E E E
|-------------------|-------------------|--------------------|
|-------------------|-------------------|--------------------|
|-9-----9---------4-|-(4)---4-----------|--------------------|
|-9-----9---7-9S4-4-|-(4)---4---2-4---2-|-(2)-2-0-2-2--0-2---|
|-7-----7---7-7-0-2-|-(2)-2-2---2-2-0-0-|-(0)-0-0-0-0--0-0-2-|
|-------------------|-------------------|------------------0-|
|
| E H.. W H Q. E
|-------------------|-------------------|--------------------|
|-------------------|-------------------|--------------------|
|-------------------|-------------------|--------------------|
|-------------------|-------------------|--------------------|
|-2-----------------|-------------------|------------------2-|
|-0-----------------|-------------------|------------------0-|


PM------| PM PM
E E E E E E E E +E E E E E E Q Q E E E E E E
|-----------------|-------------------|-------------------|
|-----------------|-------------------|-------------------|
|-----------------|-------------------|-9-----9-----9---4-|
|-----------------|-------------------|-9-----9-----9Sx-4-|
|-x-2-4-2-5---4-2-|-(2)-2-4p2-5p2-4/--|-7-----7---7-7S0-2-|
|-x-0-0-0-0-0-0-0-|-(0)-0-0---0---0---|-------------------|
|
| E E E E E E E E +E E E E E E E E E H..
|-----------------|-------------------|-------------------|
|-----------------|-------------------|-------------------|
|-----------------|-------------------|-------------------|
|-----------------|-------------------|-------------------|
|---2-4p2-5---4-2-|-(2)-2-4---5p2-4p2-|-2-----------------|
|---0-0---0---0-0-|-(0)-0-0---0---0---|-0-----------------|


PM PM PM---------| PM----|
+E E E E E E E E +E E E E E E E E +E E E E E E E E
|-------------------|--------------------|-------------------|
|-------------------|--------------------|-------------------|
|-(4)---4p2---4---2-|-(2)---0------------|-------------------|
|-(4)-4-4---2-4---2-|-(2)-2-0-2-2--0-2---|-----------------2-|
|-(2)-2-2---2-2---0-|-(0)-0---0-0--0-0-2-|-(2)---4---5p2h4-2-|
|-------------------|------------------0-|-(0)-0-0-0-0-------|
|
| W H Q. E +E E E E E E E E
|-------------------|--------------------|-------------------|
|-------------------|--------------------|-------------------|
|-------------------|--------------------|-------------------|
|-------------------|--------------------|-------------------|
|-------------------|------------------2-|-(2)-2-4---5---4-2-|
|-------------------|------------------0-|-(0)-0-0---0---0-0-|


PM------| PM PM PM
+Q E E E E E E Q E E E E E E +E E E E E E E E
|-------------------|-----------------|-------------------|
|-------------------|-----------------|-------------------|
|-------------------|-----9-----9---4-|-(4)---4-----4---2-|
|-(2)-----------4s9-|-9---9---7-9S4-4-|-(4)-4-4---2-4---2-|
|-(2)---4---5---2---|-7---7---7-7-0-2-|-(2)-2-2---2-2p0-0-|
|-------0-0-0-0-0---|-----------------|-------------------|
|
| +E E E E E E E E E H Q. W
|-------------------|-----------------|-------------------|
|-------------------|-----------------|-------------------|
|-------------------|-----------------|-------------------|
|-------------------|-----------------|-------------------|
|-(2)-2-4p2-5---4p2-|-2---------------|-------------------|
|-(0)-0-0---0---0---|-0---------------|-------------------|


PM| PM--------------| PM--------|
+E E E E E E E E E E E E E E E E E E E E E E Q
|-------------------|-----------------|--------------------|
|-------------------|-----------------|--------------------|
|-(2)-2-0---2p0-2---|-----------------|--------------------|
|-(2)-2-0-2-2p0-2---|-----------------|--------------------|
|-(0)-----0-0---0-2-|-x-2-4-2-5-2-4-2-|-----2-4p2-5-2-4/---|
|-----------------0-|-x-0-0-0-0-0-0-0-|-----0-0---0-0-0----|
|
| H Q. E E E E E E E E E +E E E E E E E E
|-------------------|-----------------|--------------------|
|-------------------|-----------------|--------------------|
|-------------------|-----------------|--------------------|
|-------------------|---------------2-|-(2)-2--------------|
|-----------------2-|---2-4p2-5---4-2-|-(2)-2-4---5---4----|
|-----------------0-|---0-0---0---0-0-|-(0)-0-0---0---0----|


PM PM PM
Q E E E E E E +E E E E E E E E +E E E E E E E E
|-----------------|-------------------|--------------------|
|-----------------|-------------------|--------------------|
|-9---9-----9---4-|-(4)---4-----4---2-|-(2)---0---2--0-----|
|-9---9---7-9s4-4-|-(4)-4-4---2-4-0-2-|-(2)-2-0-2-2--0-2---|
|-7---7p0-7-7---2-|-(2)-2-2---2-2-0-0-|-(0)-0---0-0----0-2-|
|-----------------|-------------------|------------------0-|
|
| E H Q. W H Q. E
|-----------------|-------------------|--------------------|
|-----------------|-------------------|--------------------|
|-----------------|-------------------|--------------------|
|-----------------|-------------------|--------------------|
|-2---------------|-------------------|------------------2-|
|-0---------------|-------------------|------------------0-|


Pre-Chorus
PM-------------------------------------------------|
+E E E E E E E E E E E E E E E E E E E E E E E E
|-------------------|-------------------||-----------------|
|-------------------|-------------------||-----------------|
|-------------------|-------------------||-----------------|
|-------------------|-------------------||-2-2-4-x-5-x-4---|
|-(2)-2-4-2-5-2-4-2-|--x--2-4-2-5-x-4-2-||-0-0-0-0-0-0-0-2-|
|-(0)-0-0-0-0-0-0-0-|--x--0-0-0-0-0-0-0-||---------------0-|
|
| +E E E E E E E E +E E E E E E E E E E E E E E E E
|-------------------|-------------------||-----------------|
|-------------------|-------------------||-----------------|
|-------------------|-------------------||-----------------|
|-------------------|-------------------||-2-2-4---5---4---|
|-(2)-2-4p2-5---4-2-|-(2)-2-4---5---4p0-||-0-0-0---0---0-2-|
|-(0)-0-0---0---0-0-|-(0)-0-0---0---0---||---------------0-|


PM---------------------------------------------------------|
E E E E E E E E E E E E E E E E E E E E E E E E
|-------------------|-----------------|-------------------------|
|-------------------|-----------------|-------------------------|
|-------------------|-----------------|-------------------------|
|-------------------|-2-2-4-x-5-2-4---|-------------------------|
|--2--2-4-2-5-x-4-0-|-0-0-0-0-0-0-0-2-|--2--2-4-2-5-x------4--2-|
|--0--0-0-0-0-0-0-0-|---------------0-|--0--0-0-0-0-0------0--0-|
|
| ~~~~~~~~
| +E E E E E E E E E E E E E E E E +H. a +E E
|-------------------|-----------------|-------------------------|
|-------------------|-----------------|-------------------------|
|-------------------|-----------------|-------------------------|
|-------------------|-2-2-4p2-5---4---|-------------------------|
|-(2)-2-4---5---4p0-|-0-0-0---0---0---|-------------------------|
|-(0)-0-0---0---0---|---------------3-|-(3)-----------3b4-(3)p0-|


PM-------------| PM----------| PM--------|
E E E E E E E E E E E E E E E E +E E E E E E E E
|---------------------|-----------------|-------------------|
|---------------------|-----------------|-------------------|
|---------------------|-----------------|-------------------|
|---------------------|-2-2-4-x-5-2-4---|-------------------|
|--2--2-4-2--5--2-4-0-|-0-0-0-0-0-0-0-2-|-(2)-2-4-x-5-2-4-0-|
|--0--0-0-0--0--0-0---|---------------0-|-(0)-0-0-0-0-0-0-0-|
|
| ~~~~~~~
| +Q E E +E E E E E E E E E E E E +E E E E E E E E
|---------------------|-----------------|-------------------|
|---------------------|-----------------|-------------------|
|---------------------|-----------------|-------------------|
|---------------------|-2-2-4p2-5---4---|-------------------|
|---------------------|-0-0-0---0---0-2-|-(2)-2-4p2-5---4p0-|
|-(0)---0-3-(3)p0-0-0-|---------------0-|-(0)-0-0---0---0---|


E E E E E E E E E E E E E E E S S H +E E E E
|-----------------|-------------------|---------------------|
|-----------------|-------------------|---------------------|
|-----------------|-------------------|---------------------|
|---4---4---4---4-|---4---4---4---9-9-|-9--------(9)-9--9-9-|
|---4---4---4---4-|---4---4---4---9-9-|-9--------(9)-9--9-9-|
|---2---2---2---2-|---2---2---2---7-7-|-7--------(7)-7--7-7-|
|
| E E E E E E E E E E E E E E E E E E E E E E E E
|-----------------|-------------------|---------------------|
|-----------------|-------------------|---------------------|
|-----------------|-------------------|---------------------|
|-----------------|-------------------|---------------------|
|-4-4-4-4-4-4-4-4-|-4-4-4-4-4-4-4-4---|-9-9-11---12----11-9-|
|-2-2-2-2-2-2-2-2-|-2-2-2-2-2-2-2-2---|-7-7--7----7-----7-7-|


T
+Q. E +Q E E E E E E E E E E Q. Q E Q
|-----------------------|-----------------|-----------------||
|-----------------------|-----------------|-----------------||
|-----------------------|-----------------|-----------------||
|-(9)------9------------|-5-5-6-6-7-7-8-8-|-9\-------/x-----||
|-(9)------9------------|-5-5-6-6-7-7-8-8-|-9\-------/x-----||
|-(7)------7-(7)p===0h3-|-3-3-4-4-5-5-6-6-|-9\-------/x-----||
|
| +E E E E E E E E E E E E E E E E E H Q.
|-----------------------|-----------------|-----------------||
|-----------------------|-----------------|-----------------||
|-----------------------|-----------------|-----------------||
|-----------------------|-----------------|-9---------------||
|-(9)-9-11p9-12----11---|-5-5-6-6-7-7-8-8-|-9---------------||
|-(7)-7--7----7-----7p0-|-3-3-4-4-5-5-6-6-|-9---------------||


Verse
PM PM PM PM| PM
Q E E E E E E +E E E E E E E E +E E E E E E E E
|-----------------|-------------------|-------------------|
|-----------------|-------------------|-------------------|
|-----9-----9---4-|-(4)---4-----4---2-|-(2)-2-0---2p0-2---|
|-9---9---7-9S4-4-|-(4)-4-4---2-4---2-|-(2)-2-0-2-2p0-2---|
|-7---7---7-7-0-2-|-(2)-2-2---2-2p0-0-|-(0)-----0-0---0-2-|
|-----------------|-------------------|-----------------0-|
|
| E H Q. W H Q. E
|-----------------|-------------------|-------------------|
|-----------------|-------------------|-------------------|
|-----------------|-------------------|-------------------|
|-----------------|-------------------|-------------------|
|-2---------------|-------------------|-----------------2-|
|-0---------------|-------------------|-----------------0-|


PM----------| PM--------| PM
E E E E E E E E E E E E E E Q Q E E E E E E
|-----------------|--------------------|-----------------|
|-----------------|--------------------|-----------------|
|-----------------|--------------------|-9---9-----9---4-|
|-----------------|--------------------|-9---9---7-9s4-4-|
|-x-2-4-2-5-2-4-2-|-----2-4p2-5-2-4/---|-7---7p0-7-7---2-|
|-x-0-0-0-0-0-0-0-|-----0-0---0-0-0----|-----------------|
|
| E E E E E E E E +E E E E E E E E E H Q.
|-----------------|--------------------|-----------------|
|-----------------|--------------------|-----------------|
|-----------------|--------------------|-----------------|
|---------------2-|-(2)-2--------------|-----------------|
|---2-4p2-5---4-2-|-(2)-2-4---5---4----|-2---------------|
|---0-0---0---0-0-|-(0)-0-0---0---0----|-0---------------|


PM PM PM----------|
+E E E E E E E E +E E E E E E E E +E E E E E E E E
|-------------------|--------------------|-------------------|
|-------------------|--------------------|-------------------|
|-(4)---4-----4---2-|-(2)---0---2--0-----|-------------------|
|-(4)-4-4---2-4-0-2-|-(2)-2-0-2-2--0-2---|-------------------|
|-(2)-2-2---2-2-0-0-|-(0)-0---0-0----0-2-|-(2)-2-4-2-5-2-4-2-|
|-------------------|------------------0-|-(0)-0-0-0-0-0-0-0-|
|
| W H Q. E +E E E E E E E E
|-------------------|--------------------|-------------------|
|-------------------|--------------------|-------------------|
|-------------------|--------------------|-------------------|
|-------------------|--------------------|-------------------|
|-------------------|------------------2-|-(2)-2-4p2-5---4-2-|
|-------------------|------------------0-|-(0)-0-0---0---0-0-|


Pre-Chorus
PM--------------------------------------------------------------------|
E E E E E E E E E E E E E E E E E E E E E E E E E E E E E E E E
|-------------------||-----------------|-----------------|------------------|
|-------------------||-----------------|-----------------|------------------|
|-------------------||-----------------|-----------------|------------------|
|-------------------||-2-2-4-x-5-x-4---|-----------------|-2-2-4-x-5-2-4----|
|--x--2-4-2-5-x-4-0-||-0-0-0-0-0-0-0-2-|-2-2-4-2-5-x-4-0-|-0-0-0-0-0-0-0-2--|
|--x--0-0-0-0-0-0-0-||---------------0-|-0-0-0-0-0-0-0-0-|---------------0--|
|
| ~
| +E E E E E E E E E E E E E E E E E E E E E E E E E E E E E E E E
|-------------------||-----------------|-----------------|------------------|
|-------------------||-----------------|-----------------|------------------|
|-------------------||-----------------|-----------------|------------------|
|-------------------||-2-2-4p2-5---4---|-----------------|-2-2-4p2-5---4----|
|-(2)-2-4---5---4p0-||-0-0-0---0---0-2-|-2-2-4---5---4p0-|-0-0-0---0---0----|
|-(0)-0-0---0---0---||---------------0-|-0-0-0---0---0---|---------------3--|


PM---------------------------------------| PM----------|
E E E E E E E E E E E E E E E E E E E E E E E E
|-------------------------|---------------------|-----------------|
|-------------------------|---------------------|-----------------|
|-------------------------|---------------------|-----------------|
|-------------------------|---------------------|-2-2-4-x-5-2-4---|
|--2--2-4-2-5-x------4--2-|--2--2-4-2--5--2-4-0-|-0-0-0-0-0-0-0-2-|
|--0--0-0-0-0-0------0--0-|--0--0-0-0--0--0-0---|---------------0-|
|
| ~~~ ~~~~~~~
| +H. a +E E +Q E E +E E E E E E E E E E E E
|-------------------------|---------------------|-----------------|
|-------------------------|---------------------|-----------------|
|-------------------------|---------------------|-----------------|
|-------------------------|---------------------|-2-2-4p2-5---4---|
|-------------------------|---------------------|-0-0-0---0---0-2-|
|-(3)-----------3b4-(3)p0-|-(0)---0-3-(3)p0-0-0-|---------------0-|


PM--------|
+E E E E E E E E E E E E E E E E E E E E E E E S S
|-------------------|-----------------|-------------------|
|-------------------|-----------------|-------------------|
|-------------------|-----------------|-------------------|
|-------------------|---4---4---4---4-|---4---4---4---9-9-|
|-(2)-2-4-x-5-2-4-0-|---4---4---4---4-|---4---4---4---9-9-|
|-(0)-0-0-0-0-0-0-0-|---2---2---2---2-|---2---2---2---7-7-|
|
| E E E E E E E E E E E E E E E E E E E E E E E E
|-------------------|-----------------|-------------------|
|-------------------|-----------------|-------------------|
|-------------------|-----------------|-------------------|
|-------------------|-----------------|-------------------|
|--2--2-4p2-5---4p0-|-4-4-4-4-4-4-4-4-|-4-4-4-4-4-4-4-4---|
|--0--0-0---0---0---|-2-2-2-2-2-2-2-2-|-2-2-2-2-2-2-2-2---|


B5
2/4
Gtr II
W W W Q Q
| |
/ /

Q Q E E E E +E E Q E E E E E E E E E E E E q q
|-----------7-7--7---|--------7---------7---|-----x-----------|-------||
|-----------7-7--7---|--------7-------------|-----x-----------|-------||
|--------------------|----------------------|-----x-----------|-------||
|-9----9-----------9-|-(9)----------------x-|-x-x---x-x-x-x-x-|-9--9--||
|-9----9-----------9-|-(9)-9-------9-9----x-|-x-x---x-x-x-x-x-|-9--9--||
|-7----7-----------7-|-(7)-7-------7-7----x-|-x-x---x-x-x-x-x-|-7--7--||
|
| E E E E E E E E +E E E E E E E E E E E E E E E E H
|--------------------|----------------------|-----------------|-------||
|--------------------|----------------------|-----------------|-------||
|--------------------|----------------------|-----------------|-------||
|--------------------|----------------------|-----------------|-------||
|-9-9-11---12---11-9-|-(9)-9-11p9-12---11---|-5-5-6-6-7-7-8-8-|-------||
|-7-7--7----7----7-7-|-(7)-7--7----7----7p0-|-3-3-4-4-5-5-6-6-|-------||


Chorus
E5
4/4
Q. E H W W W
|
/

Q. E H H q q Q. E H H q q
|-------------|------------|-------------|-------------|
|-------------|------------|-------------|-------------|
|-9\----------|------------|-9\----------|-------------|
|-9\----------|------9--9--|-9\----------|------9--9---|
|-7\----------|------9--9--|-7\----------|------9--9---|
|-------------|------7--7--|-------------|------7--7---|


Q. E H H q q Q H.
|-------------|------------|----------|
|-------------|------------|----------|
|-9\----------|------------|-9--------|
|-9\----------|------9--9--|-9--------|
|-7\----------|------9--9--|-7--------|
|-------------|------7--7--|----------|


H q q Q E E +E E E E E E q q q
|------------|------------------|--------------|
|------------|------------------|--------------|
|------------|----x-9-(9)-9-9-x-|-7-x----------|
|------9-----|-9--x-7-(7)-7-7-x-|-5-x-7--------|
|------9--9--|-7--x-0-(0)-0-0-0-|-0-0-5--9--9--|
|------7--7--|------------------|--------7--7--|
|
| Gtr II
| H Q q Q E E +E Q E E E q q q
|------------|------------------|--------------|
|------------|------------------|--------------|
|------8--8--|-9----9-(9)-9---9-|-7-7----------|
|------9--9--|-9----7-(7)-7---7-|-5-5-7--------|
|------9--9--|-7p=0-------------|-----5--9--9--|
|------7--7--|------------------|--------7--7--|


Q E E +E E E E E E q q q Q E E +E E E E
|------------------|--------------|------------------|
|------------------|--------------|------------------|
|----x-9-(9)-9-9-x-|-7-x----------|----x-9-(9)-9-9-x-|
|-9--x-7-(7)-7-7-x-|-5-x-7--------|-9--x-7-(7)-7-7-x-|
|-7--x-0-(0)-0-0-0-|-0-0-5--9--9--|-7--x-0-(0)-0-0-0-|
|------------------|--------7--7--|------------------|
|
| Q E E +E Q E E E q q q Q E E +E Q E
|------------------|--------------|------------------|
|------------------|--------------|------------------|
|-9----9-(9)-9---9-|-7-7----------|-9----9-(9)-9---9-|
|-9----7-(7)-7---7-|-5-5-7--------|-9----7-(7)-7---7-|
|-7p=0-------------|-----5--9--9--|-7p=0-------------|
|------------------|--------7--7--|------------------|


2/4
E E q q q Q E E +E E E E q Q
|--------------|-------------------|---------|
|--------------|-------------------|---------|
|-7-x----------|-----x-9-(9)-9-9-x-|-7-------|
|-5-x-7--------|-9---x-7-(7)-7-7-x-|-5---7S==|
|-0-0-5--9--9--|-7---x-0-(0)-0-0-0-|-0---5S==|
|--------7--7--|-------------------|---------|
|
| E E q q q E E E E +E Q E E E E E
|--------------|-------------------|---------|
|--------------|-------------------|---------|
|-7-7----------|-9---0-9-(9)-9---9-|-7-x-----|
|-5-5-7--------|-9-9---7-(7)-7---7-|-5-x-7s5-|
|-----5--9--9--|-7-----------------|-----5s3-|
|--------7--7--|-------------------|---------|


4/4
H.. E E E E E E E E E
|-------------------|-----------------|
|-------------------|-----------------|
|-------------------|-----------------|
|-5---------------5-|---5---5---5-5s4-|
|-3---------------3-|---3---3---3-3s2-|
|-------------------|-----------------|
|
| E E E E E E E E E E E E E E E E
|-------------------|-----------------|
|-------------------|-----------------|
|-------------------|-----------------|
|-5---5-7-x-5-5-7-7-|-5-5-7-x-5-5-7-x-|
|-3---3-3-3-3-3-3-3-|-3-3-3-3-3-3-3-3-|
|-------------------|-----------------|


H. E E +E Q E +Q Q
|-----------------|------------------------||
|-----------------|------------------------||
|-----------------|------------------------||
|-4-------------4-|-(4)-4---(4)-(4)---4----||
|-2p==========0-2-|-(2)-2----2--(2)---2----||
|-----------------|------------------------||
|
| E E E E E E E E E E E E E E E E
|-----------------|------------------------||
|-----------------|------------------------||
|-----------------|------------------------||
|-4-4-6-6-4-4-6-6-|--4--4-6--6---4--4-6----||
|-2-2-2-2-2-2-2-2-|--2--2-2--2---2--2-2-0--||
|---------0-------|------------------------||


+E Q E Q E E +E Q E Q E E E E E E +Q a Q
|-------------------|---------------------|---17---17-(17)---------------|
|-------------------|---------------------|---17---17-(17)---------17----|
|----------------/9-|-(9)-9------9------9-|-----------------16b18-(16)---|
|-(4)-2-----2-------|---------------------|------------------------------|
|-(2)-----0----0----|---------0-------0---|------------------------------|
|-------------------|---------------------|------------------------------|
|
| Q Q Q E E +E E E E +E E Q Q Q Q E E
|-------------------|---------------------|------------------------------|
|-------------------|---------------------|------------------------------|
|-------------------|---------------------|------------------------------|
|-----------2-----5-|-(5)---5-4-(4)---4---|-2-----------2--------------5-|
|--0--------0--0----|-----0---------0-----|-0-----------0-----------0----|
|-------------------|---------------------|------------------------------|


~~~~
E a Q a +E +E a E +E E
|------------------------------------------------------||
|-------------17--------------------------17--(17)\----||
|-----16pb18-(16)---16-(16)-(16)-16pb18==(16)-(16)\----||
|------------------------------------------------------||
|------------------------------------------------------||
|------------------------------------------------------||
|
| +E E E E +H
|------------------------------------------------------||
|------------------------------------------------------||
|------------------------------------------------------||
|-(5)-------------5------4---(4)-----------------------||
|--------------0---------------------------------------||
|------------------------------------------------------||


Verse
PM PM PM PM| PM--------------|
Q E E E E E E +E E E E E E E E +E E E E E E E E E E E E E E E E
|-----------------|-------------------|-------------------|------------------|
|-----------------|-------------------|-------------------|------------------|
|-----9-----9---4-|-(4)---4-----4---2-|-(2)-2-0---2p0-2---|------------------|
|-9---9---7-9S4-4-|-(4)-4-4---2-4---2-|-(2)-2-0-2-2p0-2---|------------------|
|-7---7---7-7-0-2-|-(2)-2-2---2-2p0-0-|-(0)-----0-0---0-2-|-x-2-4-2-5-2-4-2--|
|-----------------|-------------------|-----------------0-|-x-0-0-0-0-0-0-0--|
|
| E H Q. W H Q. E E E E E E E E E
|-----------------|-------------------|-------------------|------------------|
|-----------------|-------------------|-------------------|------------------|
|-----------------|-------------------|-------------------|------------------|
|-----------------|-------------------|-------------------|---------------2--|
|-2---------------|-------------------|-----------------2-|---2-4p2-5---4-2--|
|-0---------------|-------------------|-----------------0-|---0-0---0---0-0--|


PM--------| PM
E E E E E E Q Q E E E E E E
|--------------------|-----------------|
|--------------------|-----------------|
|--------------------|-9---9-----9---4-|
|--------------------|-9---9---7-9s4-4-|
|-----2-4p2-5-2-4/---|-7---7p0-7-7---2-|
|-----0-0---0-0-0----|-----------------|
|
| +E E E E E E E E E H Q.
|--------------------|-----------------|
|--------------------|-----------------|
|--------------------|-----------------|
|-(2)-2--------------|-----------------|
|-(2)-2-4---5---4----|-2---------------|
|-(0)-0-0---0---0----|-0---------------|


PM PM
+E E E E E E E E +E E E E E E E E
|-------------------|---------------------|
|-------------------|---------------------|
|-(4)---4-----4---2-|-(2)---0---2--0------|
|-(4)-4-4---2-4-0-2-|-(2)-2-0-2-2--0-2----|
|-(2)-2-2---2-2-0-0-|-(0)-0---0-0----0-2--|
|-------------------|------------------0--|
|
| W H Q. E
|-------------------|---------------------|
|-------------------|---------------------|
|-------------------|---------------------|
|-------------------|---------------------|
|-------------------|------------------2--|
|-------------------|------------------0--|


PM----------------------------------
+E E E E E E E E E E E E E E E E
|-------------------|-------------------||
|-------------------|-------------------||
|-------------------|-------------------||
|-------------------|-------------------||
|-(2)-2-4-2-5-2-4-2-|--x--2-4-2-5-x-4-0-||
|-(0)-0-0-0-0-0-0-0-|--x--0-0-0-0-0-0-0-||
|
| +E E E E E E E E +E E E E E E E E
|-------------------|-------------------||
|-------------------|-------------------||
|-------------------|-------------------||
|-------------------|-------------------||
|-(2)-2-4p2-5---4-2-|-(2)-2-4---5---4p0-||
|-(0)-0-0---0---0-0-|-(0)-0-0---0---0---||


Pre-Chorus
---------------------------------------------------|
E E E E E E E E E E E E E E E E E E E E E E E E
|-----------------|-----------------|------------------|
|-----------------|-----------------|------------------|
|-----------------|-----------------|------------------|
|-2-2-4-x-5-x-4---|-----------------|-2-2-4-x-5-2-4----|
|-0-0-0-0-0-0-0-2-|-2-2-4-2-5-x-4-0-|-0-0-0-0-0-0-0-2--|
|---------------0-|-0-0-0-0-0-0-0-0-|---------------0--|
|
| ~
| E E E E E E E E E E E E E E E E E E E E E E E E
|-----------------|-----------------|------------------|
|-----------------|-----------------|------------------|
|-----------------|-----------------|------------------|
|-2-2-4p2-5---4---|-----------------|-2-2-4p2-5---4----|
|-0-0-0---0---0-2-|-2-2-4---5---4p0-|-0-0-0---0---0----|
|---------------0-|-0-0-0---0---0---|---------------3--|


PM-------------------------------------|
E E E E E E E E E E E E E E E E
|-------------------------|-------------------|
|-------------------------|-------------------|
|-------------------------|-------------------|
|-------------------------|-------------------|
|--2--2-4-2-5-x------4--2-|--2--2-4-2-5-2-4-0-|
|--0--0-0-0-0-0------0--0-|--0--0-0-0-0-0-0---|
|
| ~~~
| +H. a +E E +E E E E E E E E
|-------------------------|-------------------|
|-------------------------|-------------------|
|-------------------------|-------------------|
|-------------------------|-------------------|
|-------------------------|-------------------|
|-(3)-----------3b4-(3)p0-|-(0)-0-2-2-3-3-4-4-|


PM----------| PM--------|
E E E E E E E E E E E E E E E E
|-----------------|-----------------|
|-----------------|-----------------|
|-----------------|-----------------|
|-2-2-4-x-5-2-4---|-----------------|
|-0-0-0-0-0-0-0-2-|-2-2-4-x-5-2-4-0-|
|---------------0-|-0-0-0-0-0-0-0-0-|
|
| E E E E E E E E E E E E E E E E
|-----------------|-----------------|
|-----------------|-----------------|
|-----------------|-----------------|
|-2-2-4p2-5---4---|-----------------|
|-0-0-0---0---0-2-|-2-2-4p2-5---4p0-|
|---------------0-|-0-0-0---0---0---|


E E E E E E E E E E E E E E Q
|---2---2---2---2-|---2---2---2-----|
|---2---2---2---2-|---2---2---2-----|
|---3---3---3---3-|---3---3---3-----|
|-------4---4---4-|---4-------4-----|
|-----------------|-----------------|
|-----------------|-----------------|
|
| E E E E E E E E E E E E E E E E
|-----------------|-----------------|
|-----------------|-----------------|
|-----------------|-----------------|
|-----------------|-----------------|
|-4-4-4-4-4-4-4-4-|-4-4-4-4-4-4-4-4-|
|-2-2-2-2-2-2-2-2-|-2-2-2-2-2-2-2-2-|


2/4
Q Q H Q E Q. E E E E E E E E E E q q
|-7----7---------------|--------7-----------x---|-----------------|---------||
|-7----7---------------|--------7-----------x---|---------5-x-----|---------||
|-8--------------------|--------x-----------x---|-4-x-5-x-6-x-7-x-|---------||
|-9--------------------|--------x-----------x---|-5-x-6-x-7-x-8-x-|-9--9----||
|----------------------|------------------------|-5-x-6-x-7-x-8-x-|-9--9----||
|----------------------|----------------------0-|-3-x-4-x-5-x-6-x-|-7--7----||
|
| E E E E E E E E +E E E E E E E E E E E E E E E E Q Q
|----------------------|------------------------|-----------------|---------||
|----------------------|------------------------|-----------------|---------||
|----------------------|------------------------|-----------------|---------||
|----------------------|------------------------|-----------------|---------||
|-9-9-11---12-----11-9-|-(9)-9-11p9--12----11---|-5-5-6-6-7-7-8-8-|-9--9\---||
|-7-7--7----7------7-7-|-(7)-7--7-----7-----7p0-|-3-3-4-4-5-5-6-6-|-7--7\---||
|
| Gtr III
| H E a Q E +Q Q Q. E W H
|-------------5s7----7-|-(7)--------------------|-----------------|---------||
|----------------------|--------7-----4---------|-----------------|---------||
|----------------------|--------------4---------|-----------------|---------||
|----------------------|--------------4---------|-----------------|---------||
|----------------------|------------------------|-----------------|---------||
|----------------------|------------------------|-----------------|---------||


Out-Chorus
4/4
Q. E H H q q Q. E H
|-------------|------------|-------------|
|-------------|------------|-------------|
|-9\----------|------------|-9\----------|
|-9\----------|------9--9--|-9\----------|
|-7\----------|------9--9--|-7\----------|
|-------------|------7--7--|-------------|


H q q Q. E H H q q
|------------|-------------|------------|
|------------|-------------|------------|
|------------|-9\----------|------------|
|------9--9--|-9\----------|------9--9--|
|------9--9--|-7\----------|------9--9--|
|------7--7--|-------------|------7--7--|


W H q q Q E E +E E E E
|-----------|------------|------------------|
|-----------|------------|------------------|
|-9\--------|------------|----x-9-(9)-9-9-x-|
|-9\--------|------9-----|-9--x-7-(7)-7-7-x-|
|-7\--------|------9--9--|-7--x-0-(0)-0-0-0-|
|-----------|------7--7--|------------------|
|
| Gtr II
| W H Q q Q E E +E Q E
|-----------|------------|------------------|
|-----------|------------|------------------|
|-----------|------8--8--|-9----9-(9)-9---9-|
|-----------|------9--9--|-9----7-(7)-7---7-|
|-----------|------9--9--|-7p=0-------------|
|-----------|------7--7--|------------------|


E E q q q Q E E +E E E E E E q q q
|--------------|------------------|--------------|
|--------------|------------------|--------------|
|-7-x----------|----x-9-(9)-9-9-x-|-7-x----------|
|-5-x-7--------|-9--x-7-(7)-7-7-x-|-5-x-7--------|
|-0-0-5--9--9--|-7--x-0-(0)-0-0-0-|-0-0-5--9--9--|
|--------7--7--|------------------|--------7--7--|
|
| E E q q q Q E E +E Q E E E q q q
|--------------|------------------|--------------|
|--------------|------------------|--------------|
|-7-7----------|-9----9-(9)-9---9-|-7-7----------|
|-5-5-7--------|-9----7-(7)-7---7-|-5-5-7--------|
|-----5--9--9--|-7p=0-------------|-----5--9--9--|
|--------7--7--|------------------|--------7--7--|


Q E E +E E E E E E q q q Q E E +E E E E
|------------------|--------------|-------------------|
|------------------|--------------|-------------------|
|----x-9-(9)-9-9-x-|-7-x----------|-----x-9-(9)-9-9-x-|
|-9--x-7-(7)-7-7-x-|-5-x-7--------|-9---x-7-(7)-7-7-x-|
|-7--x-0-(0)-0-0-0-|-0-0-5--9--9--|-7---x-0-(0)-0-0-0-|
|------------------|--------7--7--|-------------------|
|
| Q E E +E Q E E E q q q E E E E +E Q E
|------------------|--------------|-------------------|
|------------------|--------------|-------------------|
|-9----9-(9)-9---9-|-7-7----------|-9---0-9-(9)-9---9-|
|-9----7-(7)-7---7-|-5-5-7--------|-9-9---7-(7)-7---7-|
|-7p=0-------------|-----5--9--9--|-7-----------------|
|------------------|--------7--7--|-------------------|


Slower Q.=72
2/4 4/4 7/8 3/8
E E E E H. E E H +Q E Q E
|---------|------------------|----------------|-7----|
|---------|------------------|----------------|-7----|
|-7-0-----|------------------|----------------|-7----|
|-5-0-7s5-|-5------------5s7-|-7-------(7)----|-9----|
|-----5s3-|-3------------3s5-|-5-------(5)----|------|
|---------|------------------|--------------0-|----0-|
|
| E E E E E E E E E E E E E E E E E E E Q E
|---------|------------------|----------------|------|
|---------|------------------|----------------|-7----|
|-7-7-----|------------------|----------------|-7----|
|-5-5-7---|-5--5-7-5-5-5-7-5-|-7-7-9-7--7h9---|-7----|
|-----5p0-|-3--3-3-3-3-3-3-3-|-5-5-5-5--5-----|------|
|---------|------------------|--------------0-|----0-|


Q E Q E Q E Q E Q E E E E
|-7----|-7----|-7----|-7----|-7----|-7-----:
|-7----|-7----|-7----|-7----|-7----|-7-----:
|-7----|-7----|-7----|-7----|-7----|-7-----:
|-9----|-9----|-9----|-9----|-9----|-9-----:
|------|------|------|------|------|-------:
|----0-|----0-|----0-|----0-|----0-|---0-0-:
|
| Q E Q E Q E Q E Q E Q E
|------|------|------|------|------|-------:
|-7----|-7----|-7----|-7----|-7----|-7-----:
|-7----|-7----|-7----|-7----|-7----|-7-----:
|-7----|-7----|-7----|-7----|-7----|-7-----:
|------|------|------|------|------|-------:
|----0-|----0-|----0-|----0-|----0-|-------:


4/4
\1____________________________________
~~~
H +H +Q H.
|---------------:---------------------*|
|---------------:---------------------*|
|---------------:---------------------*|
|-9------(9)----:-(9)\----------------*|
|-7------(7)----:-(7)\----------------*|
|-0------(0)----:-(0)\----------------*|
|
| T
| H H Q +Q E E Q
|------------:---------------------*|
|------------:---------------------*|
|-9-------------:--9------------/x----*|
|-9-------------:--9----(9)\----/x----*|
|-7-------------:--7------------/x----*|
|-0-------------:--0------------------*|



Duration Legend
---------------
W - whole; H - half; Q - quarter; E - 8th; S - 16th; T - 32nd; X - 64th; a - acciaccatura
+ - note tied to previous; . - note dotted; .. - note double dotted
Uncapitalized letters represent notes that are staccato (1/2 duration)
Irregular groupings are notated above the duration line
Duration letters will always appear directly above the note/fret number it represents the
duration for. Duration letters with no fret number below them represent rests. Multi-
bar rests are notated in the form Wxn, where n is the number of bars to rest for. Low
melody durations appear below the staff

Tablature Legend
----------------
h - hammer-on
p - pull-off
b - bend
pb - pre-bend
r - bend release (if no number after the r, then release immediately)
/\ - slide into or out of (from/to "nowhere")
s - legato slide
S - shift slide
- natural harmonic
[n] - artificial harmonic
n(n) - tapped harmonic
~ - vibrato
tr - trill
T - tap
TP - trem. picking
PM - palm muting
\n/ - tremolo bar dip; n = amount to dip
\n - tremolo bar down
n/ - tremolo bar up
/n\ - tremolo bar inverted dip
= - hold bend; also acts as connecting device for hammers/pulls
- volume swell (louder/softer)
x - on rhythm slash represents muted slash
o - on rhythm slash represents single note slash

Misc Legend
-----------
| - bar
|| - double bar
||o - repeat start
o|| - repeat end
*| - double bar (ending)
: - bar (freetime)
$ - Segno
& - Coda
Tempo markers - = BPM(8/16=s8/s16), where s8 = swing 8ths, s16 = swing 16ths

Song info
Mama Kin
Aerosmith
2001
  • Rock
  • Hard Rock
  • Rock & Roll
  • Southern Rock
Alternative tracks
Similar songs
Digital Bath - Deftones
Its now or never - Elvis Presley
Set Me Free - Velvet Revolver
By The Sword - Slash
Thre Steps To Heaven - Eddie Cochran

Hi! Hope you enjoy backing track experience.
If you want to help us in the development of the project, feel free to donate!