Pink - Aerosmith
00:00 / 00:00
Tabs and lyrics
Tunning: Standard (E A D G B e)
Pink - Aerosmith
Album:Nine Lives
Tabbed by LooX pro

[Intro]G G/F Cadd9 /B Dadd9
e|--------3--3-3-------3--3--|---------------------------|
B|--------3--3-3-------3--3--|---------------------------|
G|--------0--0-0-------0--0--|--------0------------0-----|
D|--------0--0-0-------0--0--|-----2-----2------4--------|
A|-----2---------------------|--3-----------2/5-------0--|
E|--3--3---------1--1--------|---------------------------|

Guitar 2:
e|-----3-3----3-3----3----3-3---|-----3-3---3-3-3---3-3-3-3-3-3-3-|
B|-----3-3----3-3----3----3-3-5-|-----3-3---3-3-3---3-3-3-3-3-3-3-|
G|--5b-----5b-----5b----5b------|--5b-----5b------5b--------------|
D|------------------------------|---------------------------------|
A|------------------------------|---------------------------------|
E|------------------------------|---------------------------------|

[Chords used]
G - F - Cadd - D - Em - A - C -C7

[Verse]
G - F - C - D
Pink it's my new obsession
Pink it's not even a question,
Pink on the lips of your lover, 'cause
Pink is the love you discover
Pink as the bing on your cherry
Pink 'cause you are so very
Pink it's the color of passion
'Cause today it just goes with the fashion

[Chorus]
G F Cadd D
Pink it was love at first sight
G F Cadd D
Pink when I turn out the light, and
G F Cadd D
Pink gets me high as a kite
Em A C
And I think everything is going to be all right
C7
No matter what we do tonight

[Verse](same)
G - F - C - D
You could be my flamingo
'Coz pink is the new kinda lingo
Pink like a deco umbrella
It's kink - but you don't ever tell her
Pink it was love at first sight, and
Pink when I turn out the light
Pink gets me high as a kite
And I think everything is going to be all right
No matter what we do tonight

[Solo]
e|-----------------------------|--8--------8------------------|
B|-----------------------------|-----11b-----8-10r-8h10p8~-8~-|
G|----16r-------14r-------8/10-|------------------------------|
D|----------17\-------15\------|------------------------------|
A|-----------------------------|------------------------------|
E|-----------------------------|------------------------------|

e|-----------------------|-----------------------------------|
B|-----------------------|-----------------------------------|
G|----7r------5r---------|--8-----8-10b-8--10-8-8-10-8-8-10~-|
D|---------8\------6-----|-----10----------------------------|
A|--------------------6/-|-----------------------------------|
E|-----------------------|-----------------------------------|

e|----------------------------|-------------------------------------------|
B|----------------------------|-------------------------------------------|
G|----9r-------7r-------------|--10-------------------12r12b10-12-12b10~--|
D|---------10\------8\-----10-|------------10-12--10----------------------|
A|---------------------6/8----|------10/12--------------------------------|
E|----------------------------|-------------------------------------------|

e|----------10--------12--------14--14/17-|--17p14-17-17-17-17-17b-|
B|----------------------------------------|------------------------|
G|--7--9/11-----11/12-----12/14-----------|------------------------|
D|----------------------------------------|------------------------|
A|----------------------------------------|------------------------|
E|----------------------------------------|------------------------|

[Verse](same):
G - F - C - D
I want to be your lover
I wanna wrap you in rubber
As pink as the sheets that we lay on
Pink it's my favorite crayon, yeah
Pink it was love at first sight
Pink when I turn out the light
Pink it's like red but not quite
And I think everything is going to be all right
No matter what we do tonight

************************************

| / Slide up
| b Bend
| h Hammer-on
| p Pull-off
| r Release
| ~ Vibrato
| \ Slide down

************************************
Song info
Pink
Aerosmith
2001
  • Rock
  • Hard Rock
Alternative tracks
Similar songs
Bombtrack - Rage Against the Machine
Lady Starlight - Scorpions
Highway Star - Deep Purple
Be Yourself - Audioslave
Tragic Comic - Extreme

Hi! Hope you enjoy backing track experience.
If you want to help us in the development of the project, feel free to donate!