00:00 / 00:00
Tabs and lyrics
Tunning: Standard (E A D G B e)
Song: Would?
Band: Alice in Chains
Down half a step


[Intro]

D#|--------------------------------------------------|
A#|----------------------------------------------5---|
F#|--4h6--4h6---4--4--------4h6--4h6--4--4-----4-----|
C#|--4----4-----4--5--------4----4----4--5---5-------|
G#|--------------------------------------------------|
D#|--------------------------------------------------|


[Verse]

D#|--------------------------------------------------|
A#|--------------------------------------------------|
F#|--------------------------------------------------|
C#|----------------------------------------------2---|
G#|--2h4--2h4---2--2--------2h4--2h4--2--2-----2-----|
D#|--2----2-----2--3--------2----2----2--3---3-------|


[Chorus]

D#|------------------------3--3-------3---3---3--3---3---|
A#|------------------------3--3-------3---3---3--3---3---|
F#|-4---4--4---4--4---2----0--0-------0---0---0--0---0---|
C#|-4---4--4---4--4---2----0--0-------0---0---0--0---0---|
G#|-2---2--2---2--2---0----2--2-------2---X---2--2---2---|
D#|------------------------3--3-0--2--3---3---3--3---3---|

Into the flood again Same old trip it was
back then
So I made a big mistake try to see it
once my way.


[Outro]

D D7 G# G
D#|----------------------------------------------------------------|
A#|-3--3----6--6-6-----4--4------------------------3---------------|
F#|-2--2-X--5--5-5--5--5--5--5--------5---------4--4--4--4--4------|
C#|-0--0-X--4--4-4--6--6--6--6-6-6-6--6----5--5-5--5--5--5--5--5---|
G#|-0--0-X--5--5-5--6--6--6--6-6-6-6--6----5--5-5--5--5--5--5--5---|
D#|-----------------4--4--4--4-4-4-4--4-0--3--3-3--3--3--3--3--3---|
Am I Wrong Have I run too far

E
D#|------------------------------|
A#|------------------------------|
F#|--1--1--1-1--------------1----|
C#|--2--2--2-2--2--2--2--2--2----|
G#|--2--2--2-2--2--2--2--2--2----|
D#|--0--0--0-0--0--0--0--0--0----|
to get home


D7 D7 D7 D7 D7
If I would could you?



************************************

| h Hammer-on
| X Dead note

************************************
Tunning: Standard (E A D G B e)
B5 G5

e| |---x---| |---3---|
B| |---x---| |---3---|
G| |---4---| |---0---|
D| |---4---| |---0---|
A| |---2---| |---x---|
E| |---x---| |---3---|

The spacing between notes is not exactly correct because it was really hard
to get the notes to line up with the lyrics.



To start off if you want to play the bass part on a guitar I think it goes like this:

e|---------------------------------------------------------------------------|
B|---------------------------------------------------------------------------|
G|---------------------------------------------------------------------------|
D|---------------------------------------------------------------------------|
A|---------------------------------------------------------------------------|
E|--0h2--2--2--2--0--0--0---2--3---3---3--3--3b--0--0---0--3--0--0---0---0--0|
|
---- guitars come in about here.

The backing guitars play this during the solo and it seems really close.



Tune down 1/2 step

Guitars 1&2
A fdbk----------|
e|----------|-------------------0--|--------------|---------------------|
B|----------|----------------------|--------------|--(0)----------------|
G|----------|----------------------|--6-----------|--(0)----------------|
D|----------|-----7---------7------|--------------|---------------------|
A|----------|--7----------7--------|--------------|---------------------|
E|----------|----------------------|--------------|---------------------|
Would?___________


Rhy. Fig A
e|---------------------|-------|---------------------|--------------------|
B|---------------------|-------|---------------------|-----------------5--|
G|-4h6----4h6----4--4--|-------|-4h6---4h6----4--4---|-(4)----------4-----|
D|-4------4------4--5--|-------|-4-----4------4--5---|---------4/5--------|
A|---------------------|-------|---------------------|--------------------|
E|---------------------|-------|---------------------|--------------------|
| |
| Gtr. 3 (plays 1st time only) |
| /\/\/\/\/\/\/\/\/\/\/\/\/\/\ (1/2 to full) /\/\/\/\/\/ |
e|---------------------|-------|---------------------|-----------------0--|
B|-5h7-----------------|-------|------------------5bb|-----------------0--|
G|---------------------|-------|---------------------|------6-------------|
D|---------------------|-------|---------------------|--------------------|
A|---------------------|-------|---------------------|--------------------|
E|---------------------|-------|---------------------|--------------------|




e|---------------------|-------|---------------------|--------------------|
B|---------------------|-------|---------------------|--------------------|
G|-4h6----4h6----4--4--|-------|-4h6---4h6----4--4---|--------------------|
D|-4------4------4--5--|-------|-4-----4------4--5---|-----------------2--|
A|---------------------|-------|---------------------|--------------2-----|
E|---------------------|-------|---------------------|---------2/3--------|
| |
| |
| |
e|---------------------|-------|---------------------|--------------------|
B|---------------------|-------|---------------------|--------------------|
G|-4h6----4h6----4--4--|-------|---------------------|-2h4----------------|
D|-4------4------4--5--|-------|---------------------|-----4--------------|
A|---------------------|-------|---------------------|--------------------|
E|---------------------|-------|---------------------|--------------------|



[Verse]

Rhy. Fig 1
e|---------------------|-------|---------------------|--------------------|
B|---------------------|-------|---------------------|--------------------|
G|---------------------|-------|---------------------|--------------------|
D|---------------------|-------|---------------------|-----------------2--|
A|-2h4----2h4----2--2--|-------|--2h4----2h4----2--2-|--------------2-----|
E|-2------2------2--3--|-------|--2------2------2--3-|---------2/3--------|

1.Know me bro-ken by my mas - ster.


Rhy. Fig 1 (1st 3 bars)

Teach thee on child, love here-af - ter


[Chorus]

Rhy. Fig 2

Gtr. 1&2

(end Rhy. Fig 2) w/ Rhy.Fig 2 (3 times)
B5 G5
| || ||| | | |||||| ||| | |

Gtr.3
/\\/\/\/\/\/\/\/\/\/\/\ /\/\/\
e|-----------------------|------------------------------|-------------------|
B|-----------------------|----------------0-------------|----7--------------|
G|-7-----------6---------|-------------------------6----|-7-------7----6----|
D|-----------------------|------------------------------|-------------------|
A|-----------------------|------------------------------|-------------------|
E|-----------------------|------------------------------|-------------------|

In to the flood again same old trip it was back then.____


/\/\/ /\/\
e|--------------------7---7--|
B|------0---------7-------7--|
G|----------6----------------|
D|---------------------------|
A|---------------------------|
E|---------------------------|

________
* 6b(6) = bend 1/2 and release


/\/\/\/\/\/\/\/\/\/\/\/\/\/\/ * /\/\/\
e|--------------------------|------------------------------|-------------------|
B|--------------------------|-----------------0------------|--------7----------|
G|---7-----------6------6---|-------------------------6----|---6--7---6b(6)----|
D|--------------------------|------------------------------|-------------------|
A|--------------------------|------------------------------|-------------------|
E|--------------------------|------------------------------|-------------------|

So I made a big mistake___________ try to see it once ny way._________


/\/\/\/\/\/\/\/\/
e|-------------------|
B|-------------------|
G|----------------2--|
D|-------------------|
A|-------------------|
E|-------------------|

____________


At this point I am going to get lazy because this is taking too long to do.


[Solo]

|<-------Legato Phrasing -------->| /\/\/\/\/\/\/\/\/\ (full)
e|-----------------------------------------------------------------------5---|
B|---------------------------------------7--------------------5--5b----------|
G|--4-6-4-6-4-6-4-6-4-6-4-6-4-6-4-6-4-6--------------------------------------|
D|---------------------------------------------------------------------------|
A|---------------------------------------------------------------------------|
E|---------------------------------------------------------------------------|
harm
/\/\/\/\/\/\/\/\/\/\ *
e|---------------------------------------------------------------------------|
B|---------------------------------------------------------------------------|
G|--4h6--6--6--------4h6p4-----------(4)-----------------------7b(7)---------|
D|---------------------------------------------------------------------------|
A|---------------------------------------------------------------------------|
E|---------------------------------------------------------------------------|
*This is what it looked like


full------
/ \
/ \
7 (7) (7)


/\/\/\/\/\/\/\/\/\/\/\ /\/\/\/\ PM mute|
fdbk harm fdbk
e|---------------------------------------------------------------(5)---------|
B|--7-----------------------------5h7----------------------------(5)---------|
G|---------------------------------------------------------------------------|
D|-----7-4-------------------------------------------------------------------|
A|-------------------------(9)------------4---------4--2--2--2---------------|
E|---------------------------------------------------------------------------|


For the part where it goes


Yeah. Am I wrong? Have I run too far to get home?


Its D------------------->| to here then it goes into the power chords


P.M.--------------------------------------------------------|
e|---------------------------------------------------------------------------|
B|---------------------------------------------------------------------------|
G|---------------------------------------------------------------------------|
D|---------------------------------------------------------------------------|
A|--6-(x11)---5-(x12)---2---4---4---2--5-----0--4--0--2--0--4--0-------------|
E|--4---------3---------0---0---0---0--0-------------------------------------|

repeat (x3)

Then play


F(#4) F(#4) F(#4) F(#4) Fadd9

If I would, could you?

F(#4) Fadd9
1 3
0 x
2 2
3 3
x x
1 1


************************************

| x Dead note
| (n) Ghost note
| h Hammer-on
| p Pull-off
| > Accented note
| b Bend
| / vibrato (?) ( bend the note really fast or use the bar.)
| P.M. palm mute
| harm harmonic

************************************
Tunning: Standard (E A D G B e)
I love this song intro.....

[Intro]
e|---------------------------------------------------------------|
B|---------5-----------------------------------------------------|
G|------4-------------4h6---4h6---4--4-----4h6----4h6--4--4------|
D|--5-----------------4-----4-----4--5-----4------4----4--5------|
A|---------------------------------------------------------------|
E|---------------------------------------------------------------|

e|---------------------------------------------------------------|
B|-----------5---------------------------------------------------|
G|--------4-------------4h6---4h6---4--4-----4h6----4h6--4--4----|
D|---/5-----------------4-----4-----4--5-----4------4----4--5----|
A|---------------------------------------------------------------|
E|---------------------------------------------------------------|


[Verse]
e|-------------------------------------------------------|
B|-------------------------------------------------------|
G|-------------------------------------------------------|
D|----------2--------------------------------------------|
A|-------2--------2h4--2h4--2---2-----2h4--2h4---2----2--|
E|--2/3-----------2----2----2---3-----2----2-----2----3--|

e|------------------------------------------------------|
B|------------------------------------------------------|
G|------------------------------------------------------|
D|----------2-------------------------------------------|
A|-------2--------2h4--2h4--2---2-----2h4--2h4---2---2--|
E|--2/3-----------2----2----2---3-----2----2-----2---3--|


e|-------------------------3-------3----3----3------|
B|-------3---3---3------3--3-------3----3----3---0--|
G|-------0---0---0------0--0-------0----0----0---0--|
D|-------0---0---0------0--0-------0----0----0---0--|
A|-------2---2---2------2--2-------2----2----2------|
E|--3----3---3---3------3--3-------3----3----3------|


[Chorus]
e|----------------------3-3--3-3--3-3--3-3--3-3--3-3--|
B|----------------------3-3--3-3--3-3--3-3--3-3--3-3--|
G|--4--4-4--4--4-4--4-4-0-0--0-0--0-0--0-0--0-0--0-0--|
D|--4--4-4--4--4-4--4-4-0-0--0-0--0-0--0-0--0-0--0-0--| x4
A|--2--2-2--2--2-2--2-2-0-0--0-0--0-0--0-0--0-0--0-0--|
E|----------------------3-3--3-3--3-3--3-3--3-3--3-3--|


[Solo]

guitar1
e|--------------------------------------------------------------------------|
B|--------------------------------------------------------------------------|
G|--6h7p6~~~~~~~/11~~~~~9-11-11^-rb(11)--9-11-9-11-9------------------------|
D|--------------------------------------------------------------11----11~~~~|
A|--------------------------------------------------------------------------|
E|--------------------------------------------------------------------------|

guitar2 play twice w/ guitar1
e|---------------------------------------------------|
b|---------------------------------------------------|
g|---------------------------------------------------|
d|------------------------------------------2--------|
a|--4--4--4----4----4-----4--------------2--2--------|
e|--2--2--2--0-2-------0--3--3--3--0--3--3--3--0--3--|

e|-------------------------------------------------------|
B|-------------------------------------------------------|
G|-------------------------------------------------------|
D|----------------------------------------------------2--|
A|--2h4--4-4-4-4--4-------4-----------------2-2----2-----|
E|--2----2-2-2-2------0---3---3--3--0--0--3-3-3-3--------|

e|--------------------------------------------------|
B|--------------------------------------------------|
G|--------------------------------------------------|
D|--9-7-9^hb9rb(9)-7---7-------------------7--9/11--|
A|--------------------9-----9-7-9-9-7-7-7-----------|
E|--------------------------------------------------|

e|---------------------------------------------------------------|
B|---------------10------12/\hb12hb12rb(12)10-------10-----------|
G|--9-11-11---11----11--------------------------11------------2--|
D|------------------------------------------------------------2--|
A|---------------------------------------------------------------|
E|---------------------------------------------------------------|


[Bridge] x2
e|--2---2-2-2-------------------------4-4--4--4--4-4-4-4--|
B|--3---3-3-3--6-6-6--6-6-------------4-4--4--4--4-4-4-4--|
G|--2---2-2-2--5-5-5--5-5-------------5-5--5--5--5-5-5-5--|
D|--0---0-0-0--4-4-4--4-4-------------6-6--6--6--6-6-6-6--|
A|-------------5-5-5--5-5--5-5--5--5--6-6--6--6--6-6-6-6--|
E|---------------------------4--4--4--4-4--4--4--4-4-4-4--|

e|--------3--3-3--3-3--3--3-3-3-3--------------------------------|
B|--------3--3-3--3-3--3--3-3-3-3--------------------------------|
G|--------4--4-4--4-4--4--4-4-4-4---1-1--1-1-1--1-1--1--1-1-1-1--|
D|--------5--5-5--5-5--5--5-5-5-5---2-2--2-2-2--2-2--2--2-2-2-2--|
A|--5--5--5--5-5--5-5--5--5-5-5-5---2-2--2-2-2--2-2--2--2-2-2-2--|
E|--3--3--3--3-3--3-3--3--3-3-3-3---0-0--0-0-0--0-0--0--0-0-0-0--|


[Outro]
e|---------------------------------------------------------|
B|----6-----------6-----------6-----------6-----------6----|
G|----5-----------5-----------5-----------5-----------5----|
D|----4-----------4-----------4-----------4-----------4----|
A|----5-----------5-----------5-----------5-----------5----|
E|---------------------------------------------------------|


*****************************

h = hammer on
p = pull off
~ = tremolo
^ = half bend
/\ = full bend
rb(X) = release bend
hb = hold bend
/ = slide up
\ = slide down


*****************************
kenven_maiden@yahoo.com
Kenneth Cerda. Managua, Nicaragua
Tunning: Standard (E A D G B e)
Band- Alice In Chains
Song- Would?

Gtr I (Eb Ab Db Gb Bb Eb) - 'Jerry Cantrell - Rhythm dist electric'
Gtr II (Eb Ab Db Gb Bb Eb) - 'Jerry Cantrell - Lead dist electric'


[Intro]
Q=100
4/4
Gtr I
<
\7
W E E Q +E E E E W E Q. +E Q +E
D#|----------|----------------0-|----------|---3----(3)-(3)--(3)-|
A#|----------|------------------|-2--------|---5----(5)p=3---(3)-|
F#|----------|-----2--(2)---2---|----------|---4----(4)-(4)--(4)-|
C#|----------|---2--------2-----|----------|---------------------|
G#|----------|------------------|----------|---------------------|
D#|----------|------------------|----------|---3----(3)-(3)--(3)-|

Gtr II
~~~~~~~~~~~~~~~~~~~~~~~~
W +W
D#|---------------------|------------|
A#|---7-----------------|-(7)--------|
F#|---------------------|------------|
C#|---------------------|------------|
G#|---------------------|------------|
D#|---------------------|------------|
|
| Gtr I
| a Q. a E +E E Q +W
D#|---------------------|------------|
A#|---------------------|------------|
F#|-4h6----4h6-(6)-4-4--|-(4)--------|
C#|---4------4-(4)-4-5--|-(5)--------|
G#|---------------------|------------|
D#|---------------------|------------|

~~~~~~
H Q E E +Q +E E +Q. E
D#|-------------------------|-------------------------|
A#|--------------------5b7==|=(5)--(5)r---------------|
F#|-------------------------|-----------6-(6)------4--|
C#|-------------------------|-------------------------|
G#|-------------------------|-------------------------|
D#|-------------------------|-------------------------|
|
| a Q. a E +E E Q +H +E E E E
D#|-------------------------|----------------------0--|
A#|-------------------------|-------------------------|
F#|-4h6----4h6-(6)-4-4------|-(4)---------(4)----4----|
C#|---4------4-(4)-4-5------|-(5)---------(5)-/5------|
G#|-------------------------|-------------------------|
D#|-------------------------|-------------------------|

~~~~~~~~~~~~~~~~~~~
Q +E a +E +H +H H
D#|--------------------------------|--------------|
A#|--------------------------------|--------------|
F#|---4b5===(4)r-4b6==(4)-(4)------|-(4)r---------|
C#|--------------------------------|--------------|
G#|--------------------------------|--------------|
D#|--------------------------------|--------------|
|
| a Q. a E +E E Q +W
D#|--------------------------------|--------------|
A#|--------------------------------|--------------|
F#|-4h6----------4h====6--(6)-4-4--|-(4)----------|
C#|---4----------------4--(4)-4-5--|-(5)----------|
G#|--------------------------------|--------------|
D#|--------------------------------|--------------|

~~~~~~~~~
W S S Q. +H
D#|---------------------|-----------------------||
A#|---------------------|-----------------------||
F#|---------------------|--2h=4-----------------||
C#|---------------------|-------4----(4)--------||
G#|---------------------|-----------------------||
D#|---------------------|-----------------------||
|
| a Q. a E +E E Q +H +E E E E
D#|---------------------|-----------------------||
A#|---------------------|-----------------------||
F#|-4h6----4h6-(6)-4-4--|-(4)--------(4)--------||
C#|---4------4-(4)-4-5--|-(5)--------(5)------2-||
G#|---------------------|-------------------2---||
D#|---------------------|----------------/3-----||

[Verse 1]
Gtrs I, II
a Q. a E +E E Q +W a Q. a E +E E Q +H +E E E E
D#|---------------------|------------|---------------------|--------------------|
A#|---------------------|------------|---------------------|--------------------|
F#|---------------------|------------|---------------------|--------------------|
C#|---------------------|------------|---------------------|-----------------2--|
G#|-2h4----2h4-(4)-2-2--|-(2)--------|-2h4----2h4-(4)-2-2--|-(2)----(2)----2----|
D#|---2------2-(2)-2-3--|-(3)--------|---2------2-(2)-2-3--|-(3)----(3)-/3------|

Gtr II
<
a Q. a E +E E Q +W a Q. a E +E E Q Q Q +E +Q.
D#|---------------------|------------|---------------------|--------------------||
A#|---------------------|------------|---------------------|--------------------||
F#|---------------------|------------|---------------------|------0--(0)-(0)----||
C#|---------------------|------------|---------------------|------0--(0)-(0)----||
G#|-2h4----2h4-(4)-2-2--|-(2)--------|-2h4----2h4-(4)-2-2--|------2--(2)-(2)----||
D#|---2------2-(2)-2-3--|-(3)--------|---2------2-(2)-2-3--|------3--(3)-(3)----||
|
| Gtr I
| a Q. a E +E E Q +W a Q. a E +E E Q +W
D#|---------------------|------------|---------------------|--------------------||
A#|---------------------|------------|---------------------|--------------------||
F#|---------------------|------------|---------------------|--------------------||
C#|---------------------|------------|---------------------|--------------------||
G#|-2h4----2h4-(4)-2-2--|-(2)--------|-2h4----2h4-(4)-2-2--|-(2)----------------||
D#|---2------2-(2)-2-3--|-(3)--------|---2------2-(2)-2-3--|-(3)----------------||

[Chorus]
~~~~~~~~~~~~~~~~~~~~~~~~~~~~~~~~~~~~~~~
a +Q +E +E +H +H +E Q E
D#|--------------------------------------|-----------------------------|
A#|--------------------------------------|-----------------------------|
F#|-6b7==(6)-----(6)r(6)---(6)-----------|-(6)-----------(6)---4---6---|
C#|--------------------------------------|-----------------------------|
G#|--------------------------------------|-----------------------------|
D#|--------------------------------------|-----------------------------|
|
| a E S S E S S +S S E E S S E S S E S S +S S E E S S
D#|--------------------------------------|-----------------------------|
A#|--------------------------------------|-----------------------------|
F#|-------4--4-4--4---4--4-(4)---0-0-----|--0--0-0-0-0-0-(0)-0-0-0-0-0-|
C#|-------4--4-4--4---4--4-(4)---0-0-----|--0--0-0-0-0-0-(0)-0-0-0-0-0-|
G#|-0h====2--2-2--2---2--2-(2)-0---------|-----------------------------|
D#|------------------------------3-3-0-2-|--3--3-3-3-3-3-(3)-3-3-3-3-3-|

~~~~~~~~~~~~~~~
a +E S S E E +E +Q. +E Q E +E S S E E
D#|------------------------------------|---------------------------7-7-7---|
A#|------------7-7-7---(7)-------------|-------------------------7---7-7---|
F#|-6b7==(6)-6---6-6---(6)r==(6)-------|-(6)-4-----6b7====(6)r-------------|
C#|------------------------------------|-----------------------------------|
G#|------------------------------------|-----------------------------------|
D#|------------------------------------|-----------------------------------|
|
| a E S S E S S +S S E E S S E S S E S S +S S E E S S
D#|------------------------------------|-----------------------------------|
A#|------------------------------------|-----------------------------------|
F#|-------4--4-4-4-4-4-(4)----0--0-----|--0--0-0-0-0----0-(0)--0-0---0-0-0-|
C#|-------4--4-4-4-4-4-(4)----0--0-----|--0--0-0-0-0----0-(0)--0-0---0-0-0-|
G#|-0h====2--2-2-2-2-2-(2)-0-----------|-----------------------------------|
D#|---------------------------3--3-0-2-|--3--3-3-3-3----3-(3)--3-3---3-3-3-|

~~~~~~~~~
Q +E +E +H
D#|--------------------------------------|
A#|--------------------------------------|
F#|---6b7======(6)r(6)---(6)-------------|
C#|--------------------------------------|
G#|--------------------------------------|
D#|--------------------------------------|
|
| a E S S E S S +S S E E S S
D#|--------------------------------------|
A#|--------------------------------------|
F#|---4----4-4--4---4--4-(4)---0-0-------|
C#|---4----4-4--4---4--4-(4)---0-0-------|
G#|-0h2----2-2--2---2--2-(2)-0-----------|
D#|----------------------------3-3-0-2---|

~~~~~~~~~~~~~~~~~ ~~~~~~~~
+H +E Q E E +E E E +Q +Q
D#|-----------------------------|--------------7---------------------|
A#|-----------------------------|--------------7---------------------|
F#|-(6)-----------(6)---4---6---|---6b7==(6)-----6r==(6)-----(6)-----|
C#|-----------------------------|------------------------------------|
G#|-----------------------------|------------------------------------|
D#|-----------------------------|------------------------------------|
|
| E S S E S S +S S E E S S a E S S E S S +S S E E S S
D#|-----------------------------|------------------------------------|
A#|-----------------------------|------------------------------------|
F#|--0--0-0-0-0-0-(0)-0-0-0-0-0-|---4-----4--4-4-4-4-(4)---0--0------|
C#|--0--0-0-0-0-0-(0)-0-0-0-0-0-|---4-----4--4-4-4-4-(4)---0--0------|
G#|-----------------------------|-0h2-----2--2-2-2-2-(2)-0-----------|
D#|--3--3-3-3-3-3-(3)-3-3-3-3-3-|--------------------------3--3--0-2-|

~~~~~~
+H.. S S
D#|-------------------------------||
A#|-------------------------------||
F#|-(6)----------------------2h4--||
C#|-------------------------------||
G#|-------------------------------||
D#|-------------------------------||
|
| E S S E S S +S S E E S S
D#|-------------------------------||
A#|-------------------------------||
F#|--0---0-0-0-0-0-(0)-0-0-0-0-0--||
C#|--0---0-0-0-0-0-(0)-0-0-0-0-0--||
G#|-------------------------------||
D#|--3---3-3-3-3-3-(3)-3-3-3-3-3--||

~~~~~~~~~~~~~~~~~~~~~~~~~~~~~~
Q +Q +E +E +Q +W
D#|-------------------------------|-------------|
A#|-------------------------------|-------------|
F#|-------------------------------|-------------|
C#|---4---(4)-----(4)-(4)b5==(4)--|-(4)r--------|
G#|-------------------------------|-------------|
D#|-------------------------------|-------------|
|
| G
| a Q. a E +E E Q +W
D#|-------------------------------|-------------|
A#|-------------------------------|-------------|
F#|-4h6-------4h6-(6)--4------4---|-(4)---------|
C#|---4---------4-(4)--4------5---|-(5)---------|
G#|-------------------------------|-------------|
D#|-------------------------------|-------------|

W W
D#|---------------------|--------------------|
A#|---------------------|--------------------|
F#|---------------------|--------------------|
C#|---------------------|--------------------|
G#|---------------------|--------------------|
D#|---------------------|--------------------|
|
|Gtrs I, II
| a Q. a E +E E Q +H +E E E E
D#|---------------------|-----------------0--|
A#|---------------------|--------------------|
F#|-4h6----4h6-(6)-4-4--|-(4)----(4)----4----|
C#|---4------4-(4)-4-5--|-(5)----(5)-/5------|
G#|---------------------|--------------------|
D#|---------------------|--------------------|

Gtrs I, II
a Q. a E +E E Q +W a Q. a E +E E Q +H +E E E E
D#|---------------------|------------|---------------------|--------------------||
A#|---------------------|------------|---------------------|--------------------||
F#|-4h6----4h6-(6)-4-4--|-(4)--------|-4h6----4h6-(6)-4-4--|-(4)----(4)---------||
C#|---4------4-(4)-4-5--|-(5)--------|---4------4-(4)-4-5--|-(5)----(5)------2--||
G#|---------------------|------------|---------------------|---------------2----||
D#|---------------------|------------|---------------------|------------/3------||

[Verse 2]
a Q. a E +E E Q +W a Q. a E +E E Q +H +E E E E
D#|---------------------|------------|---------------------|--------------------|
A#|---------------------|------------|---------------------|--------------------|
F#|---------------------|------------|---------------------|--------------------|
C#|---------------------|------------|---------------------|-----------------2--|
G#|-2h4----2h4-(4)-2-2--|-(2)--------|-2h4----2h4-(4)-2-2--|-(2)----(2)----2----|
D#|---2------2-(2)-2-3--|-(3)--------|---2------2-(2)-2-3--|-(3)----(3)-/3------|

Gtr II
<
a Q. a E +E E Q +W a Q. a E +E E Q Q Q +E +Q.
D#|---------------------|------------|---------------------|--------------------||
A#|---------------------|------------|---------------------|--------------------||
F#|---------------------|------------|---------------------|------0--(0)-(0)----||
C#|---------------------|------------|---------------------|------0--(0)-(0)----||
G#|-2h4----2h4-(4)-2-2--|-(2)--------|-2h4----2h4-(4)-2-2--|------2--(2)-(2)----||
D#|---2------2-(2)-2-3--|-(3)--------|---2------2-(2)-2-3--|------3--(3)-(3)----||
|
| Gtr I
| a Q. a E +E E Q +W a Q. a E +E E Q +W
D#|---------------------|------------|---------------------|--------------------||
A#|---------------------|------------|---------------------|--------------------||
F#|---------------------|------------|---------------------|--------------------||
C#|---------------------|------------|---------------------|--------------------||
G#|-2h4----2h4-(4)-2-2--|-(2)--------|-2h4----2h4-(4)-2-2--|-(2)----------------||
D#|---2------2-(2)-2-3--|-(3)--------|---2------2-(2)-2-3--|-(3)----------------||

[Chorus]
~~~~~~~~~~~~~~~~~~~~~~
E +Q. Q. S S +H +E Q E
D#|----------------------------------|-----------------------------|
A#|----------------------------------|-----------------------------|
F#|---6b7==(6)r=========6--------6-6-|-(6)-----------(6)---4---6---|
C#|----------------------------------|-----------------------------|
G#|----------------------------------|-----------------------------|
D#|----------------------------------|-----------------------------|
|
| a E S S E S S +S S E E S S E S S E S S +S S E E S S
D#|----------------------------------|-----------------------------|
A#|----------------------------------|-----------------------------|
F#|---4-----4--4-4-4-4-(4)---0-0-----|--0--0-0-0-0-0-(0)-0-0-0-0-0-|
C#|---4-----4--4-4-4-4-(4)---0-0-----|--0--0-0-0-0-0-(0)-0-0-0-0-0-|
G#|-0h2-----2--2-2-2-2-(2)-0---------|-----------------------------|
D#|--------------------------3-3-0-2-|--3--3-3-3-3-3-(3)-3-3-3-3-3-|

~~~~~~~~~~~~~~~~~~~~~~~~~~~
E +E E E +E E +Q +H +E Q E
D#|----------------------------------------|-----------------------------|
A#|---------------7------------------------|-----------------------------|
F#|---6b7==(6)r-----6b7====(6)---6r(6)-----|-(6)-----------(6)---4---6---|
C#|----------------------------------------|-----------------------------|
G#|----------------------------------------|-----------------------------|
D#|----------------------------------------|-----------------------------|
|
| a E S S E S S +S S E E S S E S S E S S +S S E E S S
D#|----------------------------------------|-----------------------------|
A#|----------------------------------------|-----------------------------|
F#|---4-----4---4-4-4----4-(4)---0--0------|--0--0-0-0-0-0-(0)-0-0-0-0-0-|
C#|---4-----4---4-4-4----4-(4)---0--0------|--0--0-0-0-0-0-(0)-0-0-0-0-0-|
G#|-0h2-----2---2-2-2----2-(2)-0-----------|-----------------------------|
D#|------------------------------3--3--0-2-|--3--3-3-3-3-3-(3)-3-3-3-3-3-|

~~~~~~~~~ ~~~~~~~~~~~~~~~~~~~~~~~~
a +Q +E +E +Q. S S +E S S +E S S +E Q E
D#|--------------------------------------|-------------------------------|
A#|--------------------------------------|-------------------------------|
F#|-6b7==(6)-----(6)r(6)---(6)-------6-6-|-(6)-6-6-(6)-6-6-(6)---4---6---|
C#|--------------------------------------|-------------------------------|
G#|--------------------------------------|-------------------------------|
D#|--------------------------------------|-------------------------------|
|
| a E S S E S S +S S E E S S E S S E S S +S S E E S S
D#|--------------------------------------|-------------------------------|
A#|--------------------------------------|-------------------------------|
F#|-------4--4-4--4---4--4-(4)---0-0-----|--0--0-0--0--0-0-(0)-0-0-0-0-0-|
C#|-------4--4-4--4---4--4-(4)---0-0-----|--0--0-0--0--0-0-(0)-0-0-0-0-0-|
G#|-0h====2--2-2--2---2--2-(2)-0---------|-------------------------------|
D#|------------------------------3-3-0-2-|--3--3-3--3--3-3-(3)-3-3-3-3-3-|

E +E E S S E Q. +W
D#|----------------7-7--7----7--------|-(7)--------------------------|
A#|--------------7-7-7--7----7--------|-(7)--------------------------|
F#|---6b7==(6)---------------6--------|-(6)r-------------------------|
C#|-----------------------------------|------------------------------|
G#|-----------------------------------|------------------------------|
D#|-----------------------------------|------------------------------|
|
| a E S S E S S +S S E E S S E S S E S S +S S E E S S
D#|-----------------------------------|------------------------------|
A#|-----------------------------------|------------------------------|
F#|---4-----4--4-4-4-4-(4)---0--0-----|--0---0-0-0-0-0-(0)-0-0-0-0-0-|
C#|---4-----4--4-4-4-4-(4)---0--0-----|--0---0-0-0-0-0-(0)-0-0-0-0-0-|
G#|-0h2-----2--2-2-2-2-(2)-0----------|------------------------------|
D#|--------------------------3--3-0-2-|--3---3-3-3-3-3-(3)-3-3-3-3-3-|

[Guitar Solo]
~~~~~~~~~~~~~~~~~~~~~~~~~~~~
H. Q +H +E E +E E
D#|-------------------------------------|---------------------------------------|
A#|-------------------------------------|----------------------------------10---|
F#|------------------------------11-----|-(11)-----------(11)---9b11==(9)r------|
C#|-11tr12------------------------------|---------------------------------------|
G#|-------------------------------------|---------------------------------------|
D#|-------------------------------------|---------------------------------------|
|
| PM-----------------------------------------------------------------------|
| S S S S S S S S +S S E E S S E E S S S S S S E E S S
D#|-------------------------------------|---------------------------------------|
A#|-------------------------------------|---------------------------------------|
F#|-------------------------------------|---------------------------------------|
C#|-------------------------------------|---------------------------------------|
G#|-------------------------------------|---------------------------------------|
D#|--0h====2-2-2-2p0-0-0-(0)-2-3--3-3-3-|---3--0-0-0-0-3p==0--0-0------0----0-0-|

~~~~ ~~~~~~~~~~~~~~~~~~~~~~~~~~
E S S +Q +E S S Q +H +E Q.
D#|---------------------------------------|-------------------------------|
A#|---------------------------------------|-------------------------------|
F#|---------------------------------------|-------------------------------|
C#|-9---11-11-(11)------(11)---9h11-9-----|-(9)-----------(9)-------------|
G#|---------------------------------------|---------------------12--------|
D#|---------------------------------------|-------------------------------|
|
| PM---------------------------------------------------------------------
| S S S S S S S S +S S E E S S E E S S S S S S E E S S
D#|---------------------------------------|-------------------------------|
A#|---------------------------------------|-------------------------------|
F#|---------------------------------------|-------------------------------|
C#|---------------------------------------|-------------------------------|
G#|---------------------------------------|-------------------------------|
D#|-0h2--2--2---2p0-0-0--(0)-2-3----3-3-3-|--3--0-0-0-0-3p=0--0--0--0-0-0-|

a +H +E +E S S E
D#|--------------------------------------------------|
A#|--------------------------------------------------|
F#|--------------------------------------------------|
C#|--------------------------------------------------|
G#|-(12)b14==(12)--------------(12)r==(12)-9h12-9----|
D#|--------------------------------------------------|
|
|-----------------------------------------------|
| S S S S S S S S +S S E E S S
D#|--------------------------------------------------|
A#|--------------------------------------------------|
F#|--------------------------------------------------|
C#|--------------------------------------------------|
G#|--------------------------------------------------|
D#|------------0h2-2-2-2p0-0-0--(0)-2---3--3----3-3--|

~~~~~~~~~~~~~~~~~
+H +E Q S S
D#|-----------------------------|
A#|-----------------------------|
F#|-----------------------------|
C#|-----------------------------|
G#|-(9)-----------(9)---9---7h9-|
D#|-----------------------------|
|
| PM--------------------------
| E E S S S S S S E E S S
D#|-----------------------------|
A#|-----------------------------|
F#|-----------------------------|
C#|-----------------------------|
G#|-----------------------------|
D#|--3--0-0-0-0-3p=0--0-0-0-0-0-|

~~~~~~~~~~~~~~~~~~~~ ~~~~~~~~
H +E S S E E W
D#|---------------------------------|---------------------------||
A#|---------------------------------|---------------------------||
F#|---------------------------------|---------------------------||
C#|---------------------------------|---------------------------||
G#|---------------------------------|---------------------------||
D#|-9---------------(9)---7h9p7-7---|-7-------------------------||
|
|---------------------------------------------------------|
| S S S S S S S S +S S E E S S E E S S S S S S E E S S
D#|---------------------------------|---------------------------||
A#|---------------------------------|---------------------------||
F#|---------------------------------|---------------------------||
C#|---------------------------------|---------------------------||
G#|---------------------------------|---------------------------||
D#|-0h2-2-2-2p0-0-0-(0)-2-3---3-3-3-|-3-0-0-0-0-3p0-0-0-0-0-0---||

[Chorus]
~~~~~~~~~~~~~~~~~~~~~~~~~~~~~~~~~~~~~~~
E +E +E +E +H +H +E Q E
D#|--------------------------------------|-----------------------------|
A#|--------------------------------------|-----------------------------|
F#|---6b7==(6)---(6)r(6)---(6)-----------|-(6)-----------(6)---4---6---|
C#|--------------------------------------|-----------------------------|
G#|--------------------------------------|-----------------------------|
D#|--------------------------------------|-----------------------------|
|
| a E S S E S S +S S E E S S E S S E S S +S S E E S S
D#|--------------------------------------|-----------------------------|
A#|--------------------------------------|-----------------------------|
F#|---4-----4--4--4---4--4-(4)---0-0-----|--0--0-0-0-0-0-(0)-0-0-0-0-0-|
C#|---4-----4--4--4---4--4-(4)---0-0-----|--0--0-0-0-0-0-(0)-0-0-0-0-0-|
G#|-0h2-----2--2--2---2--2-(2)-0---------|-----------------------------|
D#|------------------------------3-3-0-2-|--3--3-3-3-3-3-(3)-3-3-3-3-3-|

~~
a +E S S E E +E Q.
D#|----------------------------------------|
A#|----------7-7--7------------------------|
F#|-6b7==(6)-6-6r---6b7====(6)r---6--------|
C#|----------------------------------------|
G#|----------------------------------------|
D#|----------------------------------------|
|
| a E S S E S S +S S E E S S
D#|----------------------------------------|
A#|----------------------------------------|
F#|-------4--4-4--4-4----4-(4)----0--0-----|
C#|-------4--4-4--4-4----4-(4)----0--0-----|
G#|-0h====2--2-2--2-2----2-(2)--0----------|
D#|-------------------------------3--3-0-2-|

~~~~~~~~~~~~~~~~~
+H +E Q E
D#|-----------------------------|
A#|-----------------------------|
F#|-(6)-----------(6)---4---6---|
C#|-----------------------------|
G#|-----------------------------|
D#|-----------------------------|
|
| E S S E S S +S S E E S S
D#|-----------------------------|
A#|-----------------------------|
F#|--0--0-0-0-0-0-(0)-0-0-0-0-0-|
C#|--0--0-0-0-0-0-(0)-0-0-0-0-0-|
G#|-----------------------------|
D#|--3--3-3-3-3-3-(3)-3-3-3-3-3-|

~~~~~~~~~~~~~~~~~~~~~~~~~~~~~~~~~~~~~~~
E +E E +E +H +H +E Q E
D#|------------------------------------|------------------------------|
A#|------------------------------------|------------------------------|
F#|---6b7==(6)---6r(6)---(6)-----------|-(6)-----------(6)---4---6----|
C#|------------------------------------|------------------------------|
G#|------------------------------------|------------------------------|
D#|------------------------------------|------------------------------|
|
| a E S S E S S +S S E E S S E S S E S S +S S E E S S
D#|------------------------------------|------------------------------|
A#|------------------------------------|------------------------------|
F#|---4-----4--4-4--4--4-(4)---0-0-----|--0--0-0-0-0-0-(0)-0-0-0-0-0--|
C#|---4-----4--4-4--4--4-(4)---0-0-----|--0--0-0-0-0-0-(0)-0-0-0-0-0--|
G#|-0h2-----2--2-2--2--2-(2)-0---------|------------------------------|
D#|----------------------------3-3-0-2-|--3--3-3-3-3-3-(3)-3-3-3-3-3--|

~~~~~~~~~~
E +E E E +E +Q E +W
D#|----------------------------------------|-----------------------------||
A#|---------------7------------------------|-----------------------------||
F#|---6b7==(6)r-----6b7====(6)r==(6)---6---|-(6)-------------------------||
C#|----------------------------------------|-----------------------------||
G#|----------------------------------------|-----------------------------||
D#|----------------------------------------|-----------------------------||
|
| a E S S E S S +S S E E S S E S S E S S +S S E E S S
D#|----------------------------------------|-----------------------------||
A#|----------------------------------------|-----------------------------||
F#|---4-----4---4-4-4----4-(4)----0--0-----|--0--0-0-0-0-0-(0)-0-0-0-0-0-||
C#|---4-----4---4-4-4----4-(4)----0--0-----|--0--0-0-0-0-0-(0)-0-0-0-0-0-||
G#|-0h2-----2---2-2-2----2-(2)-0-----------|-----------------------------||
D#|-------------------------------3--3-0-2-|--3--3-3-3-3-3-(3)-3-3-3-3-3-||

[Outro]
Gtrs I, II
Q E S S E Q S S E E E S S S S E S S S S
D#||--------------------|-------------------------|
A#||o-3--3---1-1-1------|-------------------------|
F#||--2--2---2-2-2------|-------------------------|
C#||--0--0---0-0-0------|-----6---------6---------|
G#||o-0--0-x------------|-6-6-6-6-6-6-6-6-6-6-6---|
D#||-------x--------2s4-|-4-4-4-4-4-4-4-4-4-4-4-0-|


PM------------------------|
E E E S S S S E S S S S E E S S S S S S S S S S S S 4x
D#|-------------------------|------------------------------||
A#|-------------------------|-----------------------------o||
F#|-------------------------|------------------------------||
C#|-----5---------5---------|------------------------------||
G#|-5-5-5-5-5-5-5-5-5-5-5---|-2-2-2-4-2-5-2-0-4-0-2-0-4-0-o||
D#|-3-3-3-3-3-3-3-3-3-3-3-0-|-0-0-0-0-0-0-0-0-0-0-0-0-0-0--||

~ ~ ~ ~ ~
Q Q Q Q Q Q Q Q H H
D#|-------------|-------------|-----------*|
A#|-6-----6-----|-6-----6-----|-6---------*|
F#|-5-----5-----|-5-----5-----|-5---------*|
C#|-4-----4-----|-4-----4-----|-4---------*|
G#|-5-----5-----|-5-----5-----|-5---------*|
D#|-------------|-------------|-----------*|

Duration Legend
---------------
W - whole; H - half; Q - quarter; E - 8th; S - 16th; T - 32nd; X - 64th; a - acciaccatura
+ - note tied to previous; . - note dotted; .. - note double dotted
Uncapitalized letters represent notes that are staccato (1/2 duration)
Irregular groupings are notated above the duration line
Duration letters will always appear directly above the note/fret number it represents the
duration for. Duration letters with no fret number below them represent rests. Multi-
bar rests are notated in the form Wxn, where n is the number of bars to rest for. Low
melody durations appear below the staff

Tablature Legend
----------------
h - hammer-on
p - pull-off
b - bend
pb - pre-bend
r - bend release (if no number after the r, then release immediately)
/\ - slide into or out of (from/to "nowhere")
s - legato slide
S - shift slide
- natural harmonic
[n] - artificial harmonic
n(n) - tapped harmonic
~ - vibrato
tr - trill
T - tap
TP - trem. picking
PM - palm muting
\n/ - tremolo bar dip; n = amount to dip
\n - tremolo bar down
n/ - tremolo bar up
/n\ - tremolo bar inverted dip
= - hold bend; also acts as connecting device for hammers/pulls
<> - volume swell (louder/softer)
x - on rhythm slash represents muted slash
o - on rhythm slash represents single note slash

Misc Legend
-----------
| - bar
|| - double bar
||o - repeat start
o|| - repeat end
*| - double bar (ending)
: - bar (freetime)
$ - Segno
& - Coda
Tempo markers - = BPM(8/16=s8/s16), where s8 = swing 8ths, s16 = swing 16ths
Tunning: Standard (E A D G B e)
e-----------|
b-----5-----|
g--6--------|
d-----------|
a-----------|
e-----------|

e---------------------------------------|
b-----------------------------------5---|
g--4h6-4h6--4-4---4h6-4h6--4-4----4-----|
d--4---4----4-5---4---4----4-5--5-------|
a---------------------------------------|
e---------------------------------------|

e---------------------------------------|
b---------------------------------------|
g--4h6-4h6--4-4---4h6-4h6--4-4----------|
d--4---4----4-5---4---4----4-5------2---|
a---------------------------------2-----|
e-------------------------------3-------|

e-----------------------------------|
b-----------------------------------|
g-----------------------------------|
d-------------------------------2---|
a--2h4-2h4-2-2--2h4-2h4-2-2----2----|
e--2---2---2-3--2---2---2-3--3------|

e------------------3-3-3--3-3-3-3-3-3--3-3-3-3-3-|
b------------------3-3-3--3-3-3-3-3-3--3-3-3-3-3-|
g--4-4-4-4-4--4-4--0-0-0--0-0-0-0-0-0--0-0-0-0-0-|
d--4-4-4-4-4--4-4--0-0-0--0-0-0-0-0-0--0-0-0-0-0-|
a--2-2-2-2-2--2-2--2-2-2--2-2-2-2-2-2--2-2-2-2-2-|
e------------------3-3-3--3-3-3-3-3-3--3-3-3-3-3-|
solo
e--------------------------------------------------------------|
b--------------------------------------------------------------|
g--------------------------------------11v----9-11--11br--11v--|
d--9h11p9h11p9h11p9h11p9h11p9h11p9h11--------------------------|
a--------------------------------------------------------------|
e--------------------------------------------------------------|

e-----------------------------------------------------|
b-----------------------------------------------------|
g--9-11-9-11-9----------------------------------------|
d---------------11v----11-9--9br--11p9---7v--4v--4-4--|
a--------------------------------------9--------------|
e-----------------------------------------------------|

e---------------------5----8b-8b--7p5---5v--|
b------------5-7-7--7-----------------7-----|
g--------4s6--------------------------------|
d--4h6-7------------------------------------|
a-------------------------------------------|
e-------------------------------------------|

e--2---2-2-2-------------------------4-4--4--4--4-4-4-4--|
b--3---3-3-3--6-6-6--6-6-------------4-4--4--4--4-4-4-4--|
g--2---2-2-2--5-5-5--5-5-------------5-5--5--5--5-5-5-5--|
d--0---0-0-0--4-4-4--4-4-------------6-6--6--6--6-6-6-6--|
a-------------5-5-5--5-5--5-5--5--5--6-6--6--6--6-6-6-6--|
e---------------------------4--4--4--4-4--4--4--4-4-4-4--|

e--------3--3-3--3-3--3--3-3-3-3--------------------------------|
b--------3--3-3--3-3--3--3-3-3-3--------------------------------|
g--------4--4-4--4-4--4--4-4-4-4---1-1--1-1-1--1-1--1--1-1-1-1--|
d--------5--5-5--5-5--5--5-5-5-5---2-2--2-2-2--2-2--2--2-2-2-2--|
a--5--5--5--5-5--5-5--5--5-5-5-5---2-2--2-2-2--2-2--2--2-2-2-2--|
e--3--3--3--3-3--3-3--3--3-3-3-3---0-0--0-0-0--0-0--0--0-0-0-0--|

e---------------------------------------------------------|
b----6-----------6-----------6-----------6-----------6----|
g----5-----------5-----------5-----------5-----------5----|
d----4-----------4-----------4-----------4-----------4----|
a----5-----------5-----------5-----------5-----------5----|
e---------------------------------------------------------|
if i would could you



************************************

| h Hammer-on
| br Bend release
| p Pull-off
| b Bend

************************************
Song info
Would
Alice in Chains
2001
  • Rock
  • Alternative Rock
  • Grunge
  • Hard Rock
Alternative tracks
Similar songs
Animal - Pearl Jam
Roller - April Wine
Too Many Friends - Placebo

Hi! Hope you enjoy backing track experience.
If you want to help us in the development of the project, feel free to donate!