Horse With No Name - America
00:00 / 00:00
Tabs and lyrics
Tunning: Standard (E A D G B e)
Song Title: A Horse With No Name
Artist/Band: America
Album: Greatest Hits

Tab by JC Rea (jcrp_21@hotmail.com)

Tuning:Standard


(Chords)

Em: 022000
E7sus4 or Esus4/D: 220200


[Verse 1]

Em E7sus4
"On the first part of the journey
Em E7sus4
I was looking at all the life
Em E7sus4
There were plants and birds and rocks and things
Em E7sus4
There was sand and hills and rings
Em E7sus4
The first thing I met was a fly with a buzz
Em E7sus4
And the sky with no clouds
Em E7sus4
The heat was hot and the ground was dry
Em E7sus4
But the air was full of sound".

(It's the same for the rest of the song; in order to play this song
just like it sounds, I recommend you to play the "big strings"(E,A and D)
alone before every Em Chord part;I mean: play 022---, before playing the whole
chord:022000)


[Solo]

(It's played with a mandolin in the original song, but it also sounds good with a guitar)

Guitar 1:
e|-0-0--2-2h3--3-3/5--5-5\2--2-2h3--3-3p0--|
B|-----------------------------------------|
G|-----------------------------------------|
D|-----------------------------------------|
A|-----------------------------------------|
E|-----------------------------------------|

e|-0-0h2--2-2h3--3-3/5--5-5/7--7-7--5-7--|
B|---------------------------------------|
G|---------------------------------------|
D|---------------------------------------|
A|---------------------------------------|
E|---------------------------------------|

e|-12-12-12-12-12-12-12-12-12-12-12-12-12-|
B|----------------------------------------|
G|----------------------------------------|
D|----------------------------------------|
A|----------------------------------------|
E|----------------------------------------|

Guitar 2(while guitar 1 plays the "12's" part):
e|-10-9-7-9-7--5-7-5--3-5-3--2-3-2--0-2-0---0--------------0--|
B|----------------------------------------3---3--2-3-2-----0--|
G|-----------------------------------------------------2---0--|
D|------------------------------------------------------------|
A|------------------------------------------------------------|
E|------------------------------------------------------------|

Another way to play this last part:

e|-10p9----9p7----7-5---5-3---3-2---2----------------------------0--|
B|------12-----10-----8-----7-----5---5--3-5-3--2-3-2--0-2-0-----0--|
G|-----------------------------------------------------------2---0--|
D|------------------------------------------------------------------|
A|------------------------------------------------------------------|
E|------------------------------------------------------------------|


************************************

| h Hammer-on
| p Pull-off
| / Slide up
| \ Slide down

************************************
Tunning: Standard (E A D G B e)
A HORSE WITH NO NAME
As recorded by America
(From the 1971 Album AMERICA)

Em D6add9/F# D6add9/E Em9
0 7 5 0 0 0 2 x 0 2 0 0 0 x 0 2 0 0 0 2 0 0 3 2
D6add9/A Em7 D6add9
x 0 0 2 0 0 0 2 0 0 3 0 x x 0 2 0 0

Gtr I (E A D G B E) - 'Acoustic'
Gtr II (E A D G B E) - 'Acoustic 12 string'
Gtr III (E A D G B E) - 'Acoustic 3'
Gtr IV (E A D G B E) - 'Acoustic 4'

[Intro] [1st and 3rd Verses]
Moderately w/ swing feel Q=124(8=s8)
$
Em D6add9/FD6add9/E Em D6add9/FD6add9/E
4/4
Gtr I
PM PM
Q E E E E E e e E E E E E E E Q E E E E E e e E E E E E E E
e||-----0-0-----0-0-|---0---0-0-0-0-0--||----0-0-----0-0-|---0---0-0-0-0-0--|
B||o----0-0-----0-0-|---0---0-0-0-0-0-o||----0-0-----0-0-|---0---0-0-0-0-0--|
G||--0--0-0-----0-0-|---2---2-2-2-2-0--||-0--0-0-----0-0-|---2---2-2-2-2-0--|
D||--5--5-5-5---5---|-0-0-x---0-0-0----||-5--5-5-5---5---|-0-0-x---0-0-0----|
A||o-7--7-7-7-7-7---|-x-x-x---x-x-x---o||-7--7-7-7-7-7---|-x-x-x---x-x-x----|
E||--0--0-0-0-0-0---|-2-2-x---0-0-0----||-0--0-0-0-0-0---|-2-2-x---0-0-0----|

[2nd Verse(1+3 verse cont)]
Em D6add9/FD6add9/E Em D6add9/FD6add9/E
PM PM
Q E E E E E e e E E E E E E E Q E E E E E e e E E E E E E E
e|----0-0-----0-0-|---0---0-0-0-0-0-||-----0-0-----0-0-|---0---0-0-0-0-0--|
B|----0-0-----0-0-|---0---0-0-0-0-0-||o----0-0-----0-0-|---0---0-0-0-0-0--|
G|-0--0-0-----0-0-|---2---2-2-2-2-0-||--0--0-0-----0-0-|---2---2-2-2-2-0--|
D|-5--5-5-5---5---|-0-0-x---0-0-0---||--5--5-5-5---5---|-0-0-x---0-0-0----|
A|-7--7-7-7-7-7---|-x-x-x---x-x-x---||o-7--7-7-7-7-7---|-x-x-x---x-x-x----|
E|-0--0-0-0-0-0---|-2-2-x---0-0-0---||--0--0-0-0-0-0---|-2-2-x---0-0-0----|

Em D6add9/FD6add9/E Em9 D6add9/FD6add9/E
Gtr II
W W Q E E +E E E e E E e e E E E E
| | | | | | | | | | | | | | |
/ / / / / / / / / / / / / / /

PM PM
Q E E E E E e e E E E E E E E Q E E E E E e e E E E E E E E
e|----0-0-----0-0-|---0---0-0-0-0-0-|----0-0------0-0-|---0---0-0-0-0-0--|
B|----0-0-----0-0-|---0---0-0-0-0-0-|----0-0------0-0-|---0---0-0-0-0-0--|
G|-0--0-0-----0-0-|---2---2-2-2-2-0-|-0--0-0------0-0-|---2---2-2-2-2-0--|
D|-5--5-5-5---5---|-0-0-x---0-0-0---|-5--5-5--5---5---|-0-0-x---0-0-0----|
A|-7--7-7-7-7-7---|-x-x-x---x-x-x---|-7--7-7--7-7-7---|-x-x-x---x-x-x----|
E|-0--0-0-0-0-0---|-2-2-x---0-0-0---|-0--0-0--0-0-0---|-2-2-x---0-0-0----|

Em9 D6add9/FD6add9/E Em9 D6add9/FD6add9/E
Q E E +E E E e E E e e E E E E Q E E +E E E e E E e e E E E E
| | | | | | | | | | | | | | | | | | | | | | | | | | | | | |
/ / / / / / / / / / / / / / / / / / / / / / / / / / / / / /

PM PM
Q E E E E E e e E E E E E E E Q E E E E E e e E E E E E E E
e|----0-0------0-0-|---0---0-0-0-0-0-|----0-0------0-0-|---0---0-0-0-0-0--|
B|----0-0------0-0-|---0---0-0-0-0-0-|----0-0------0-0-|---0---0-0-0-0-0--|
G|-0--0-0------0-0-|---2---2-2-2-2-0-|-0--0-0------0-0-|---2---2-2-2-2-0--|
D|-5--5-5--5---5---|-0-0-x---0-0-0---|-5--5-5--5---5---|-0-0-x---0-0-0----|
A|-7--7-7--7-7-7---|-x-x-x---x-x-x---|-7--7-7--7-7-7---|-x-x-x---x-x-x----|
E|-0--0-0--0-0-0---|-2-2-x---0-0-0---|-0--0-0--0-0-0---|-2-2-x---0-0-0----|

[Chorus]
Em9 D6add9/FD6add9/E Em9 D6add9/FD6add9/E
Q E E +E E E e E E e e E E E E Q E E +E E E e E E e e E E E E
| | | | | | | | | | | | | | | | | | | | | | | | | | | | | |
/ / / / / / / / / / / / / / / / / / / / / / / / / / / / / /

PM
Q E E E E E e e E E E E E E E Q E E E E E e E E E E E E E E
e|----0-0------0-0-|---0---0-0-0-0-0-|------0----0-0-0-|---0---0---0-0-0--|
B|----0-0------0-0-|---0---0-0-0-0-0-|------0----0-0-0-|---0---0-0-0-0-0--|
G|-0--0-0------0-0-|---2---2-2-2-2-0-|-0--0-0----0-0-0-|-2-2-2-2-2-2-2-0--|
D|-5--5-5--5---5---|-0-0-x---0-0-0---|-5--5-5--5-5-5---|-0-0-0-0-0-0-0-0--|
A|-7--7-7--7-7-7---|-x-x-x---x-x-x---|-7--7-7--7---7---|-x-x-x---x---x----|
E|-0--0-0--0-0-0---|-2-2-x---0-0-0---|-0--0-0--0---0---|-2-2-2---0---0----|

Em9 D6add9/FD6add9/E Em9 D6add9/FD6add9/E
Q E E +E E E e E E e e E E E E Q E E +E E E e E E e e E E E E
| | | | | | | | | | | | | | | | | | | | | | | | | | | | | |
/ / / / / / / / / / / / / / / / / / / / / / / / / / / / / /

Q E E E E E e E E E E E E E E Q E E E E E e E E E E E E E E
e|------0----0-0-0-|---0---0---0-0-0-|------0----0-0-0-|---0---0---0-0-0--|
B|------0----0-0-0-|---0---0-0-0-0-0-|------0----0-0-0-|---0---0-0-0-0-0--|
G|-0--0-0----0-0-0-|-2-2-2-2-2-2-2-0-|-0----0----0-0-0-|-2-2-2-2-2-2-2-0--|
D|-5--5-5--5-5-5---|-0-0-0-0-0-0-0-0-|-5----5--5-5-5---|-0-0-0-0-0-0-0-0--|
A|-7--7-7--7---7---|-x-x-x---x---x---|-7--7-7--7---7---|-x-x-x---x---x----|
E|-0--0-0--0---0---|-2-2-2---0---0---|-0----0--0---0---|-2-2-2---0---0----|

La la ...
To Coda
Em9 D6add9/FD6add9/E Em9 D6add9/FD6add9/E
Q E E +E E E e E E e e E E E E Q E E +E E E e E E e e E E E E
| | | | | | | | | | | | | | | | | | | | | | | | | | | | | |
/ / / / / / / / / / / / / / / / / / / / / / / / / / / / / /

Q E E E E E e E E E E E E E E Q E E E E E e E E E E E E E E
e|------0----0-0-0-|---0---0---0-0-0-|------0----0-0-0-|---0---0---0-0-0--|
B|------0----0-0-0-|---0---0-0-0-0-0-|------0----0-0-0-|---0---0-0-0-0-0--|
G|-0--0-0----0-0-0-|-2-2-2-2-2-2-2-0-|-0----0----0-0-0-|-2-2-2-2-2-2-2-0--|
D|-5--5-5--5-5-5---|-0-0-0-0-0-0-0-0-|-5----5--5-5-5---|-0-0-0-0-0-0-0-0--|
A|-7--7-7--7---7---|-x-x-x---x---x---|-7--7-7--7---7---|-x-x-x---x---x----|
E|-0--0-0--0---0---|-2-2-2---0---0---|-0----0--0---0---|-2-2-2---0---0----|

Em9 D6add9/FD6add9/E Em9 D6add9/FD6add9/E
Q E E +E E E e E E e e E E E E Q E E +E E E e E E e e E E E E
| | | | | | | | | | | | | | | | | | | | | | | | | | | | | |
/ / / / / / / / / / / / / / / / / / / / / / / / / / / / / /

Q E E E E E e E E E E E E E E Q E E E E E e E E E E E E E E
e|------0----0-0-0-|---0---0---0-0-0-|------0----0-0-0-|---0---0---0-0-0--|
B|------0----0-0-0-|---0---0-0-0-0-0-|------0----0-0-0-|---0---0-0-0-0-0--|
G|-0--0-0----0-0-0-|-2-2-2-2-2-2-2-0-|-0----0----0-0-0-|-2-2-2-2-2-2-2-0--|
D|-5--5-5--5-5-5---|-0-0-0-0-0-0-0-0-|-5----5--5-5-5---|-0-0-0-0-0-0-0-0--|
A|-7--7-7--7---7---|-x-x-x---x---x---|-7--7-7--7---7---|-x-x-x---x---x----|
E|-0--0-0--0---0---|-2-2-2---0---0---|-0----0--0---0---|-2-2-2---0---0----|

1.
Em9 D6add9/FD6add9/E
Q E E +E E E e E E e e E E E E
| | | | | | | | | | | | | | |
/ / / / / / / / / / / / / / /

Q E E E E E e E E E E E E E E
e|------0----0-0-0-|---0---0---0-0-0--||
B|------0----0-0-0-|---0---0-0-0-0-0-o||
G|-0--0-0----0-0-0-|-2-2-2-2-2-2-2-0--||
D|-5--5-5--5-5-5---|-0-0-0-0-0-0-0-0--||
A|-7--7-7--7---7---|-x-x-x---x---x---o||
E|-0--0-0--0---0---|-2-2-2---0---0----||

[Guitar Solo]
2.
Em7 D6add9 Em9
Gtr I
|--3--| |--3---| |--3--| |--3--| |--3---| |--3--|
W E E E E E E E E E E E E E E E E E E E E E E
e|-0--------||-0-0-0h2---2--2s=3---3-3s5---5-|-5S2-2s3---3--3p=0---0-0h2---2-|
B|-0--------||-------------------------------|-------------------------------|
G|-2--------||-------------------------------|-------------------------------|
D|-0--------||-------------------------------|-------------------------------|
A|-0--------||-------------------------------|-------------------------------|
E|----------||-------------------------------|-------------------------------|
|
| Gtr II
| W Q E E +E E E E E E E E +E E E E
e|-0--------||---------------------------0---|---0-----0---(0)---0-------2---|
B|-0--------||-3-------3---(3)---3-------0---|---0-----0---(0)---0-------3---|
G|-2--------||-0-------0---(0)-----------2---|---2-----2---(2)---2---x---0---|
D|-0--------||-0---x---0---(0)-------x---0---|---0-----0---(0)---0---x---0---|
A|-0--------||-2---x---2---(2)-------x-------|-----------------------x---2---|
E|----------||-0-------0---(0)-------x-------|-------------------------------|

D6add9 Em7
|--3---| |--3--| |--3---|
E E E E E E E E E E E W
e|--2s=3---3-3s5---5--5s=7---7-7-5-|-7-----------------|
B|---------------------------------|-------------------|
G|---------------------------------|-------------------|
D|---------------------------------|-------------------|
A|---------------------------------|-------------------|
E|---------------------------------|-------------------|
|
| +E E E E +E E E E E E E E +E E e E
e|-(2)---2-------2---(2)---2-----0-|---0---0-(0)-0-0---|
B|-(3)---3-------3---(3)---3-----0-|---0---0-(0)-0-0-3-|
G|-(0)-----------0---(0)---0-----2-|---2---2-(2)-2-2-0-|
D|-(0)-----------0---(0)---0---x-0-|---0---0-(0)-0-0-0-|
A|-(2)-------x---2---(2)---2---x---|-----------------2-|
E|-----------x---0---(0)---0---x---|-------------------|

D6add9
|---3---| |---3---| |---3---|
E E E E E E E E E E E
e|-12-12-12-12---12-12-12---12-12-12---12-|
B|----------------------------------------|
G|----------------------------------------|
D|----------------------------------------|
A|----------------------------------------|
E|----------------------------------------|
|
| Q E E E E E E
e|----------------------------------------|
B|--3-----3----3-----3----3----------0----|
G|--0-----0----0-----0----0----------2----|
D|--0-----0----0-----0----0-----x----0----|
A|--2-----2----2-----2----2-----x---------|
E|--0-----0----0-----0----0-----x---------|

Em9
|---3---| |---3---| |---3----| |---3---|
E E E E E E E E E E E E
e|-12-12---12-12-12---12-12--12---12-12-12---12-|
B|----------------------------------------------|
G|----------------------------------------------|
D|----------------------------------------------|
A|----------------------------------------------|
E|----------------------------------------------|
|
| E E E E +E E E E
e|----------------------------------------------|
B|-------0----------0----(0)----0-----0---------|
G|-------2----------2----(2)----2-----2----0----|
D|-------0----------0----(0)----0-----0----0----|
A|----------------------------------------------|
E|----------------------------------------------|

D.S. al Coda
Em9 D6add9
|--3--| |--3--| |--3--| |--3--| |--3--| |--3--| |--3--|
E E E E E E E E E E E E E E E E E E E E E E E
e|-12-12-12-12-12-12-12-12-12-12-12-12-|-12-12-12-12-12-12-12-12-12-12-------|
B|-------------------------------------|-------------------------------------|
G|-------------------------------------|-------------------------------------|
D|-------------------------------------|-------------------------------------|
A|-------------------------------------|-------------------------------------|
E|-------------------------------------|-------------------------------------|
|
| Gtr III
| |--3--| |--3--| |--3--| |--3--| |--3--| |--3--| |--3--| |--3--|
| E E E E E E E E e E E E E E E E E E E E E E E e
e|-14s12-10-12-10--9-10--9--7--9--7--5-|--7--5--3--5--3--2--3--2--0--2p0-----|
B|-------------------------------------|-----------------------------------3-|
G|-------------------------------------|-------------------------------------|
D|-------------------------------------|-------------------------------------|
A|-------------------------------------|-------------------------------------|
E|-------------------------------------|-------------------------------------|
|
| Gtr IV
| |--3--| |--3--| |--3--| |--3--| |--3--| |--3--| |--3--| |--3--|
| E E e E E E E e E E E E E E E E E E E E E E E E
e|-10s=9--7--9p=7--5--7--5--3--5--3--2-|--3--2--0--2--0-----0----------------|
B|-------------------------------------|-----------------3-----3--2--3-2---0-|
G|-------------------------------------|-------------------------------------|
D|-------------------------------------|-------------------------------------|
A|-------------------------------------|-------------------------------------|
E|-------------------------------------|-------------------------------------|

[Outro]
Em9 D6add9/FD6add9/E Em9 D6add9/FD6add9/E
Gtr II
Q E E +E E E e E E e e E E E E Q E E +E E E e E E e e E E E E
| | | | | | | | | | | | | | | | | | | | | | | | | | | | | |
/ / / / / / / / / / / / / / / / / / / / / / / / / / / / / /

Q E E E E E e E E E E E E E E Q E E E E E e E E E E E E E E 8x
e||---------0---0-0-0-|---0---0---0-0-0-|--------0---0-0-0-|---0---0---0-0-0--||
B||o--------0---0-0-0-|---0---0-0-0-0-0-|--------0---0-0-0-|---0---0-0-0-0-0-o||
G||--0------0---0-0-0-|-2-2-2-2-2-2-2-0-|-0------0---0-0-0-|-2-2-2-2-2-2-2-0--||
D||--5------5-5-5-5---|-0-0-0-0-0-0-0-0-|-5------5-5-5-5---|-0-0-0-0-0-0-0-0--||
A||o-7---7--7-7---7---|-x-x-x---x---x---|-7---7--7-7---7---|-x-x-x---x---x---o||
E||--0------0-0---0---|-2-2-2---0---0---|-0------0-0---0---|-2-2-2---0---0----||


Duration Legend
---------------
W - whole; H - half; Q - quarter; E - 8th; S - 16th; T - 32nd; X - 64th; a - acciaccatura
+ - note tied to previous; . - note dotted; .. - note double dotted
Uncapitalized letters represent notes that are staccato (1/2 duration)
Irregular groupings are notated above the duration line
Duration letters will always appear directly above the note/fret number it represents the
duration for. Duration letters with no fret number below them represent rests. Multi-
bar rests are notated in the form Wxn, where n is the number of bars to rest for. Low
melody durations appear below the staff

Tablature Legend
----------------
h - hammer-on
p - pull-off
b - bend
pb - pre-bend
r - bend release (if no number after the r, then release immediately)
/\ - slide into or out of (from/to "nowhere")
s - legato slide
S - shift slide
- natural harmonic
[n] - artificial harmonic
n(n) - tapped harmonic
~ - vibrato
tr - trill
T - tap
TP - trem. picking
PM - palm muting
\n/ - tremolo bar dip; n = amount to dip
\n - tremolo bar down
n/ - tremolo bar up
/n\ - tremolo bar inverted dip
= - hold bend; also acts as connecting device for hammers/pulls
<> - volume swell (louder/softer)
x - on rhythm slash represents muted slash
o - on rhythm slash represents single note slash

Misc Legend
-----------
| - bar
|| - double bar
||o - repeat start
o|| - repeat end
*| - double bar (ending)
: - bar (freetime)
$ - Segno
& - Coda
Tempo markers - = BPM(8/16=s8/s16), where s8 = swing 8ths, s16 = swing 16ths
Tunning: Standard (E A D G B e)
A HORSE WITH NO NAME

As recorded by America
(From the 1971 Album AMERICA)


Music & Words by Dewey Bunnell
Transcribed by Slowhand


Gtr I (D E D G B D) - 'Dewey Bunnell - Acoustic Guitar'
Gtr II (E A D G B E) - 'Gerry Beckley - 12-string Acoustic Guitar'
Gtr III (E A D G B E) - 'Dewey Bunnell - Acoustic Guitar'


Intro
Q=124(8=s8)
Em D6/F# D6sus2 Em D6/F# D6sus2
4/4
Gtr I (DEDGBD)
Q E E E E E E E E E E E E E E Q E E E E E E E E E E E E E E
|----2-2-----2-2-|---2---2-2-2-2-2-|----2-2-----2-2-|---2---2-2-2-2-2-||
|----0-0-----0-0-|---0---0-0-0-0-0-|----0-0-----0-0-|---0---0-0-0-0-0-||
|----0-0-----0-0-|-2-2-2-2-2-2-2-2-|----0-0-----0-0-|-2-2-2-2-2-2-2-2-||
|-2--2-2-2-2-2-2-|-0---0---0-0-0-0-|-2--2-2-2-2-2-2-|-0---0---0-0-0-0-||
|-0------0-0-----|-2---2-----------|-0------0-0-----|-2---2-----------||
|-2------2-2-----|---------0-0-0-0-|-2------2-2-----|---------0-0-0-0-||


1st & 3rd Verses
$
Em D6/F# D6sus2 Em D6/F# D6sus2
Q E E E E E E E E E E E E E E Q E E E E E E E E E E E E E E
|----2-2-----2-2-|---2---2-2-2-2-2-|----2-2-----2-2-|---2---2-2-2-2-2-|
|----0-0-----0-0-|---0---0-0-0-0-0-|----0-0-----0-0-|---0---0-0-0-0-0-|
|----0-0-----0-0-|-2-2-2-2-2-2-2-2-|----0-0-----0-0-|-2-2-2-2-2-2-2-2-|
|-2--2-2-2-2-2-2-|-0---0---0-0-0-0-|-2--2-2-2-2-2-2-|-0---0---0-0-0-0-|
|-0------0-0-----|-2---2-----------|-0------0-0-----|-2---2-----------|
|-2------2-2-----|---------0-0-0-0-|-2------2-2-----|---------0-0-0-0-|


Em D6/F# D6sus2 Em D6/F# D6sus2
Q E E E E E E E E E E E E E E Q E E E E E E E E E E E E E E
|----2-2-----2-2-|---2---2-2-2-2-2-|----2-2-----2-2-|---2---2-2-2-2-2-|
|----0-0-----0-0-|---0---0-0-0-0-0-|----0-0-----0-0-|---0---0-0-0-0-0-|
|----0-0-----0-0-|-2-2-2-2-2-2-2-2-|----0-0-----0-0-|-2-2-2-2-2-2-2-2-|
|-2--2-2-2-2-2-2-|-0---0---0-0-0-0-|-2--2-2-2-2-2-2-|-0---0---0-0-0-0-|
|-0------0-0-----|-2---2-----------|-0------0-0-----|-2---2-----------|
|-2------2-2-----|---------0-0-0-0-|-2------2-2-----|---------0-0-0-0-|


Em9 D6/F# D6/E Em9 D6/F# D6/E
Q E E E E E E E E E E E E E E Q E E E E E E E E E E E E E E
|-----2-2-------2-2-|---2---2-2-2-2-2-|----2-2-------2-2-|---2---2-2-2-2-2-|
|-----0-0-------0-0-|---0---0-0-0-0-0-|----0-0-------0-0-|---0---0-0-0-0-0-|
|-----0-0-------0-0-|-2-2-2-2-2-2-2-2-|----0-0-------0-0-|-2-2-2-2-2-2-2-2-|
|--2--2-2--2--2-2-2-|-0---0---0-0-0-0-|-2--2-2--2--2-2-2-|-0---0---0-0-0-0-|
|--0-------0--0-----|-2---2-----------|-0-------0--0-----|-2---2-----------|
|--2-------2--2-----|---------0-0-0-0-|-2-------2--2-----|---------0-0-0-0-|
|
| Gtr II
| Q E E +E E E E E E E E E E E E Q E E +E E E E E E E E E E E E
|-!2--2-2-(2)-2-2-2-|-0-0-0-0-0-0-0-0-|-2--2-2-(2)-2-2-2-|-0-0-0-0-0-0-0-0-|
|-!3--3-3-(3)-3-3-3-|-0-0-0-0-0-0-0-0-|-3--3-3-(3)-3-3-3-|-0-0-0-0-0-0-0-0-|
|-!0--0-0-(0)-0-0-0-|-2-2-2-2-2-2-2-0-|-0--0-0-(0)-0-0-0-|-2-2-2-2-2-2-2-0-|
|-!0--0-0-(0)-0-0-0-|-0-0-0-0-0-0-0-0-|-0--0-0-(0)-0-0-0-|-0-0-0-0-0-0-0-0-|
|-!2--2-2-(2)-2-2-2-|-----------------|-2--2-2-(2)-2-2-2-|-----------------|
|-!0--0-0-(0)-0-0-0-|-2-2-2-2-0---0---|-0--0-0-(0)-0-0-0-|-2-2-2-2-0---0---|


Em9 D6/F# D6/E Em9 D6/F# D6/E
Q E E E E E E E E E E E E E E Q E E E E E E E E E E E E E E
|----2-2-------2-2-|---2---2-2-2-2-2-|----2-2-------2-2-|---2---2-2-2-2-2-||
|----0-0-------0-0-|---0---0-0-0-0-0-|----0-0-------0-0-|---0---0-0-0-0-0-||
|----0-0-------0-0-|-2-2-2-2-2-2-2-2-|----0-0-------0-0-|-2-2-2-2-2-2-2-2-||
|-2--2-2--2--2-2-2-|-0---0---0-0-0-0-|-2--2-2--2--2-2-2-|-0---0---0-0-0-0-||
|-0-------0--0-----|-2---2-----------|-0-------0--0-----|-2---2-----------||
|-2-------2--2-----|---------0-0-0-0-|-2-------2--2-----|---------0-0-0-0-||
|
| Q E E +E E E E E E E E E E E E Q E E +E E E E E E E E E E E E
|-2--2-2-(2)-2-2-2-|-0-0-0-0-0-0-0-0-|-2--2-2-(2)-2-2-2-|-0-0-0-0-0-0-0-0-||
|-3--3-3-(3)-3-3-3-|-0-0-0-0-0-0-0-0-|-3--3-3-(3)-3-3-3-|-0-0-0-0-0-0-0-0-||
|-0--0-0-(0)-0-0-0-|-2-2-2-2-2-2-2-0-|-0--0-0-(0)-0-0-0-|-2-2-2-2-2-2-2-0-||
|-0--0-0-(0)-0-0-0-|-0-0-0-0-0-0-0-0-|-0--0-0-(0)-0-0-0-|-0-0-0-0-0-0-0-0-||
|-2--2-2-(2)-2-2-2-|-0-0-0-0-2---2---|-2--2-2-(2)-2-2-2-|-0-0-0-0-2---2---||
|-0--0-0-(0)-0-0-0-|-2-2-2-2-0---0---|-0--0-0-(0)-0-0-0-|-2-2-2-2-0---0---||


Chorus
Em9 D6/F# D6/E Em9 D6/F# D6/E
Q E E E E E E E E E E E E E E Q E E E E E E E E E E E E E E
|----2-2-------2-2-|---2---2-2-2-2-2-|----2-2-------2-2-|---2---2-2-2-2-2-|
|----0-0-------0-0-|---0---0-0-0-0-0-|----0-0-------0-0-|---0---0-0-0-0-0-|
|----0-0-------0-0-|-2-2-2-2-2-2-2-2-|----0-0-------0-0-|-2-2-2-2-2-2-2-2-|
|-2--2-2--2--2-2-2-|-0---0---0-0-0-0-|-2--2-2--2--2-2-2-|-0---0---0-0-0-0-|
|-0-------0--0-----|-2---2-----------|-0-------0--0-----|-2---2-----------|
|-2-------2--2-----|---------0-0-0-0-|-2-------2--2-----|---------0-0-0-0-|
|
| Q E E +E E E E E E E E E E E E Q E E +E E E E E E E E E E E E
|-2--2-2-(2)-2-2-2-|-0-0-0-0-0-0-0-0-|-2--2-2-(2)-2-2-2-|-0-0-0-0-0-0-0-0-|
|-3--3-3-(3)-3-3-3-|-0-0-0-0-0-0-0-0-|-3--3-3-(3)-3-3-3-|-0-0-0-0-0-0-0-0-|
|-0--0-0-(0)-0-0-0-|-2-2-2-2-2-2-2-0-|-0--0-0-(0)-0-0-0-|-2-2-2-2-2-2-2-0-|
|-0--0-0-(0)-0-0-0-|-0-0-0-0-0-0-0-0-|-0--0-0-(0)-0-0-0-|-0-0-0-0-0-0-0-0-|
|-2--2-2-(2)-2-2-2-|-0-0-0-0-2---2---|-2--2-2-(2)-2-2-2-|-0-0-0-0-2---2---|
|-0--0-0-(0)-0-0-0-|-2-2-2-2-0---0---|-0--0-0-(0)-0-0-0-|-2-2-2-2-0---0---|


To Coda
Em9 D6/F# D6/E Em9 D6/F# D6/E
Q E E E E E E E E E E E E E E Q E E E E E E E E E E E E E E
|----2-2-------2-2-|---2---2-2-2-2-2-|----2-2-------2-2-|---2---2-2-2-2-2--||
|----0-0-------0-0-|---0---0-0-0-0-0-|----0-0-------0-0-|---0---0-0-0-0-0--||
|----0-0-------0-0-|-2-2-2-2-2-2-2-2-|----0-0-------0-0-|-2-2-2-2-2-2-2-2--||
|-2--2-2--2--2-2-2-|-0---0---0-0-0-0-|-2--2-2--2--2-2-2-|-0---0---0-0-0-0--||
|-0-------0--0-----|-2---2-----------|-0-------0--0-----|-2---2------------||
|-2-------2--2-----|---------0-0-0-0-|-2-------2--2-----|---------0-0-0-0--||
|
| Q E E +E E E E E E E E E E E E Q E E +E E E E E E E E E E E E
|-2--2-2-(2)-2-2-2-|-0-0-0-0-0-0-0-0-|-2--2-2-(2)-2-2-2-|-0-0-0-0-0-0-0-0--||
|-3--3-3-(3)-3-3-3-|-0-0-0-0-0-0-0-0-|-3--3-3-(3)-3-3-3-|-0-0-0-0-0-0-0-0--||
|-0--0-0-(0)-0-0-0-|-2-2-2-2-2-2-2-0-|-0--0-0-(0)-0-0-0-|-2-2-2-2-2-2-2-0--||
|-0--0-0-(0)-0-0-0-|-0-0-0-0-0-0-0-0-|-0--0-0-(0)-0-0-0-|-0-0-0-0-0-0-0-0--||
|-2--2-2-(2)-2-2-2-|-0-0-0-0-2---2---|-2--2-2-(2)-2-2-2-|-0-0-0-0-2---2----||
|-0--0-0-(0)-0-0-0-|-2-2-2-2-0---0---|-0--0-0-(0)-0-0-0-|-2-2-2-2-0---0----||


Interlude
Em9 D6/F# D6/E Em9 D6/F# D6/E
Q E E E E E E E E E E E E E E Q E E E E E E E E E E E E E E
|----2-2-------2-2-|---2---2-2-2-2-2-|----2-2-------2-2-|---2---2-2-2-2-2-|
|----0-0-------0-0-|---0---0-0-0-0-0-|----0-0-------0-0-|---0---0-0-0-0-0-|
|----0-0-------0-0-|-2-2-2-2-2-2-2-2-|----0-0-------0-0-|-2-2-2-2-2-2-2-2-|
|-2--2-2--2--2-2-2-|-0---0---0-0-0-0-|-2--2-2--2--2-2-2-|-0---0---0-0-0-0-|
|-0-------0--0-----|-2---2-----------|-0-------0--0-----|-2---2-----------|
|-2-------2--2-----|---------0-0-0-0-|-2-------2--2-----|---------0-0-0-0-|
|
| Q E E +E E E E E E E E E E E E Q E E +E E E E E E E E E E E E
|-2--2-2-(2)-2-2-2-|-0-0-0-0-0-0-0-0-|-2--2-2-(2)-2-2-2-|-0-0-0-0-0-0-0-0-|
|-3--3-3-(3)-3-3-3-|-0-0-0-0-0-0-0-0-|-3--3-3-(3)-3-3-3-|-0-0-0-0-0-0-0-0-|
|-0--0-0-(0)-0-0-0-|-2-2-2-2-2-2-2-0-|-0--0-0-(0)-0-0-0-|-2-2-2-2-2-2-2-0-|
|-0--0-0-(0)-0-0-0-|-0-0-0-0-0-0-0-0-|-0--0-0-(0)-0-0-0-|-0-0-0-0-0-0-0-0-|
|-2--2-2-(2)-2-2-2-|-0-0-0-0-2---2---|-2--2-2-(2)-2-2-2-|-0-0-0-0-2---2---|
|-0--0-0-(0)-0-0-0-|-2-2-2-2-0---0---|-0--0-0-(0)-0-0-0-|-2-2-2-2-0---0---|


Em9 D6/F# D6/E Em9 D6/F# D6/E
Q E E E E E E E E E E E E E E Q E E E E E E E E E E E E E E
|----2-2-------2-2-|---2---2-2-2-2-2-|----2-2-------2-2-|---2---2-2-2-2-2-||
|----0-0-------0-0-|---0---0-0-0-0-0-|----0-0-------0-0-|---0---0-0-0-0-0-||
|----0-0-------0-0-|-2-2-2-2-2-2-2-2-|----0-0-------0-0-|-2-2-2-2-2-2-2-2-||
|-2--2-2--2--2-2-2-|-0---0---0-0-0-0-|-2--2-2--2--2-2-2-|-0---0---0-0-0-0-||
|-0-------0--0-----|-2---2-----------|-0-------0--0-----|-2---2-----------||
|-2-------2--2-----|---------0-0-0-0-|-2-------2--2-----|---------0-0-0-0-||
|
| Q E E +E E E E E E E E E E E E Q E E +E E E E E E E E E E E E
|-2--2-2-(2)-2-2-2-|-0-0-0-0-0-0-0-0-|-2--2-2-(2)-2-2-2-|-0-0-0-0-0-0-0-0-||
|-3--3-3-(3)-3-3-3-|-0-0-0-0-0-0-0-0-|-3--3-3-(3)-3-3-3-|-0-0-0-0-0-0-0-0-||
|-0--0-0-(0)-0-0-0-|-2-2-2-2-2-2-2-0-|-0--0-0-(0)-0-0-0-|-2-2-2-2-2-2-2-0-||
|-0--0-0-(0)-0-0-0-|-0-0-0-0-0-0-0-0-|-0--0-0-(0)-0-0-0-|-0-0-0-0-0-0-0-0-||
|-2--2-2-(2)-2-2-2-|-0-0-0-0-2---2---|-2--2-2-(2)-2-2-2-|-0-0-0-0-2---2---||
|-0--0-0-(0)-0-0-0-|-2-2-2-2-0---0---|-0--0-0-(0)-0-0-0-|-2-2-2-2-0---0---||


2nd Verse
Em9 D6/F# D6/E Em9 D6/F# D6/E
Q E E E E E E E E E E E E E E Q E E E E E E E E E E E E E E 3x
||-----2-2-------2-2-|---2---2-2-2-2-2-|----2-2-------2-2-|---2---2-2-2-2-2---||
||o----0-0-------0-0-|---0---0-0-0-0-0-|----0-0-------0-0-|---0---0-0-0-0-0--o||
||-----0-0-------0-0-|-2-2-2-2-2-2-2-2-|----0-0-------0-0-|-2-2-2-2-2-2-2-2---||
||--2--2-2--2--2-2-2-|-0---0---0-0-0-0-|-2--2-2--2--2-2-2-|-0---0---0-0-0-0---||
||o-0-------0--0-----|-2---2-----------|-0-------0--0-----|-2---2------------o||
||--2-------2--2-----|---------0-0-0-0-|-2-------2--2-----|---------0-0-0-0---||
|
| Q E E +E E E E E E E E E E E E Q E E +E E E E E E E E E E E E 3x
||--2--2-2-(2)-2-2-2-|-0-0-0-0-0-0-0-0-|-2--2-2-(2)-2-2-2-|-0-0-0-0-0-0-0-0---||
||o-3--3-3-(3)-3-3-3-|-0-0-0-0-0-0-0-0-|-3--3-3-(3)-3-3-3-|-0-0-0-0-0-0-0-0--o||
||--0--0-0-(0)-0-0-0-|-2-2-2-2-2-2-2-0-|-0--0-0-(0)-0-0-0-|-2-2-2-2-2-2-2-0---||
||--0--0-0-(0)-0-0-0-|-0-0-0-0-0-0-0-0-|-0--0-0-(0)-0-0-0-|-0-0-0-0-0-0-0-0---||
||o-2--2-2-(2)-2-2-2-|-0-0-0-0-2---2---|-2--2-2-(2)-2-2-2-|-0-0-0-0-2---2----o||
||--0--0-0-(0)-0-0-0-|-2-2-2-2-0---0---|-0--0-0-(0)-0-0-0-|-2-2-2-2-0---0-----||


Chorus
Em9 D6/F# D6/E Em9 D6/F# D6/E
Q E E E E E E E E E E E E E E Q E E E E E E E E E E E E E E
||-----2-2-------2-2-|---2---2-2-2-2-2-|----2-2-------2-2-|---2---2-2-2-2-2---||
||o----0-0-------0-0-|---0---0-0-0-0-0-|----0-0-------0-0-|---0---0-0-0-0-0--o||
||-----0-0-------0-0-|-2-2-2-2-2-2-2-2-|----0-0-------0-0-|-2-2-2-2-2-2-2-2---||
||--2--2-2--2--2-2-2-|-0---0---0-0-0-0-|-2--2-2--2--2-2-2-|-0---0---0-0-0-0---||
||o-0-------0--0-----|-2---2-----------|-0-------0--0-----|-2---2------------o||
||--2-------2--2-----|---------0-0-0-0-|-2-------2--2-----|---------0-0-0-0---||
|
| Q E E +E E E E E E E E E E E E Q E E +E E E E E E E E E E E E
||--2--2-2-(2)-2-2-2-|-0-0-0-0-0-0-0-0-|-2--2-2-(2)-2-2-2-|-0-0-0-0-0-0-0-0---||
||o-3--3-3-(3)-3-3-3-|-0-0-0-0-0-0-0-0-|-3--3-3-(3)-3-3-3-|-0-0-0-0-0-0-0-0--o||
||--0--0-0-(0)-0-0-0-|-2-2-2-2-2-2-2-0-|-0--0-0-(0)-0-0-0-|-2-2-2-2-2-2-2-0---||
||--0--0-0-(0)-0-0-0-|-0-0-0-0-0-0-0-0-|-0--0-0-(0)-0-0-0-|-0-0-0-0-0-0-0-0---||
||o-2--2-2-(2)-2-2-2-|-0-0-0-0-2---2---|-2--2-2-(2)-2-2-2-|-0-0-0-0-2---2----o||
||--0--0-0-(0)-0-0-0-|-2-2-2-2-0---0---|-0--0-0-(0)-0-0-0-|-2-2-2-2-0---0-----||


Interlude
Em9 D6/F# D6/E Em9 D6/F# D6/E
Q E E E E E E E E E E E E E E Q E E E E E E E E E E E E E E
|----2-2-------2-2-|---2---2-2-2-2-2-|----2-2-------2-2-|---2---2-2-2-2-2-|
|----0-0-------0-0-|---0---0-0-0-0-0-|----0-0-------0-0-|---0---0-0-0-0-0-|
|----0-0-------0-0-|-2-2-2-2-2-2-2-2-|----0-0-------0-0-|-2-2-2-2-2-2-2-2-|
|-2--2-2--2--2-2-2-|-0---0---0-0-0-0-|-2--2-2--2--2-2-2-|-0---0---0-0-0-0-|
|-0-------0--0-----|-2---2-----------|-0-------0--0-----|-2---2-----------|
|-2-------2--2-----|---------0-0-0-0-|-2-------2--2-----|---------0-0-0-0-|
|
| Q E E +E E E E E E E E E E E E Q E E +E E E E E E E E E E E E
|-2--2-2-(2)-2-2-2-|-0-0-0-0-0-0-0-0-|-2--2-2-(2)-2-2-2-|-0-0-0-0-0-0-0-0-|
|-3--3-3-(3)-3-3-3-|-0-0-0-0-0-0-0-0-|-3--3-3-(3)-3-3-3-|-0-0-0-0-0-0-0-0-|
|-0--0-0-(0)-0-0-0-|-2-2-2-2-2-2-2-0-|-0--0-0-(0)-0-0-0-|-2-2-2-2-2-2-2-0-|
|-0--0-0-(0)-0-0-0-|-0-0-0-0-0-0-0-0-|-0--0-0-(0)-0-0-0-|-0-0-0-0-0-0-0-0-|
|-2--2-2-(2)-2-2-2-|-0-0-0-0-2---2---|-2--2-2-(2)-2-2-2-|-0-0-0-0-2---2---|
|-0--0-0-(0)-0-0-0-|-2-2-2-2-0---0---|-0--0-0-(0)-0-0-0-|-2-2-2-2-0---0---|


Em9 D6/F# D6/E Em9 D6/E
Q E E E E E E E E E E E E E E Q E E E E E E W
|----2-2-------2-2-|---2---2-2-2-2-2-|----2-2-------2-2-|-0----||
|----0-0-------0-0-|---0---0-0-0-0-0-|----0-0-------0-0-|-0----||
|----0-0-------0-0-|-2-2-2-2-2-2-2-2-|----0-0-------0-0-|-2----||
|-2--2-2--2--2-2-2-|-0---0---0-0-0-0-|-2--2-2--2--2-2-2-|-0----||
|-0-------0--0-----|-2---2-----------|-0-------0--0-----|-0----||
|-2-------2--2-----|---------0-0-0-0-|-2-------2--2-----|-2----||
|
| Q E E +E E E E E E E E E E E E Q E E +E E E E W
|-2--2-2-(2)-2-2-2-|-0-0-0-0-0-0-0-0-|-2--2-2-(2)-2-2-2-|-0----||
|-3--3-3-(3)-3-3-3-|-0-0-0-0-0-0-0-0-|-3--3-3-(3)-3-3-3-|-0----||
|-0--0-0-(0)-0-0-0-|-2-2-2-2-2-2-2-0-|-0--0-0-(0)-0-0-0-|-2----||
|-0--0-0-(0)-0-0-0-|-0-0-0-0-0-0-0-0-|-0--0-0-(0)-0-0-0-|-0----||
|-2--2-2-(2)-2-2-2-|-0-0-0-0-2---2---|-2--2-2-(2)-2-2-2-|-0----||
|-0--0-0-(0)-0-0-0-|-2-2-2-2-0---0---|-0--0-0-(0)-0-0-0-|------||


Guitar Solo
Em7 D6 Em9
|--3--| |--3---| |--3--| |--3--| |--3---| |--3--|
E E E E E E E E E E E E E E E E E E E E E E
|-2-2-2h4---4--4s=5---5-5s7---7-|-7\-4-4h5---5--5p=2---2-2h4---4-|
|-------------------------------|--------------------------------|
|-------------------------------|--------------------------------|
|-------------------------------|--------------------------------|
|-------------------------------|--------------------------------|
|-------------------------------|--------------------------------|
|
| Q E E +E E E E E E E E +E E E E
|---------------------------0---|----0-----0---(0)---0-------2---|
|-3-------3---(3)---3-------0---|----0-----0---(0)---0-------3---|
|-0-------0---(0)---0-------2---|----2-----2---(2)---2---x---0---|
|-0---x---0---(0)---0---x---0---|----0-----0---(0)---0---x---0---|
|-2---x---2---(2)---2---x-------|------------------------x---2---|
|-0---x---0---(0)---0---x-------|--------------------------------|


D6
|--3---| |--3--| |--3---|
E E E E E E E E E E E
|--4h=5---5-5s7---7--7s=9---9-9-7-|
|---------------------------------|
|---------------------------------|
|---------------------------------|
|---------------------------------|
|---------------------------------|
|
| +E E E E +E E E E
|-(2)---2-------2---(2)---2-----0-|
|-(3)---3-------3---(3)---3-----0-|
|-(0)-----------0---(0)---0-----2-|
|-(0)-----------0---(0)---0---x-0-|
|-(2)-------x---2---(2)---2---x---|
|-----------x---0---(0)---0---x---|


Em9 D6
|---3---| |---3---| |---3---|
W E E E E E E E E E E E
|-9-----------------|-14-14-14-14---14-14-14---14-14-14---14-|
|-------------------|----------------------------------------|
|-------------------|----------------------------------------|
|-------------------|----------------------------------------|
|-------------------|----------------------------------------|
|-------------------|----------------------------------------|
|
| E E E E +E E E E Q E E E E E E
|---0---0-(0)-0-0-2-|----------------------------------------|
|---0---0-(0)-0-0-3-|--3-----3----3-----3----3----------0----|
|---2---2-(2)-2-2-0-|--0-----0----0-----0----0----------2----|
|---0---0-(0)-0-0-0-|--0-----0----0-----0----0-----x----0----|
|-----------------2-|--2-----2----2-----2----2-----x---------|
|-----------------0-|--0-----0----0-----0----0-----x---------|


|---3---| |---3---| |---3----| |---3---|
E E E E E E E E E E E E
|-14-14---14-14-14---14-14--14---14-14-14---14--|
|-----------------------------------------------|
|-----------------------------------------------|
|-----------------------------------------------|
|-----------------------------------------------|
|-----------------------------------------------|
|
| E E E E +E E E E
|-----------------------------------------------|
|-------0----------0----(0)----0-----0----------|
|-------2----------2----(2)----2-----2----0-----|
|-------0----------0----(0)----0-----0----0-----|
|-----------------------------------------------|
|-----------------------------------------------|


Em7 D6
|--3--| |---3---| |---3---| |---3---|
E E E E E E E E E E E E
|-14-14-14-14-14---14-14-14---14-14-14---14-|
|-------------------------------------------|
|-------------------------------------------|
|-------------------------------------------|
|-------------------------------------------|
|-------------------------------------------|
|
| Q E E E E E E
|-------------------------------------------|
|--3--------3----3-----3----3----------0----|
|--0--------0----0-----0----0----------2----|
|--0--------0----0-----0----0-----x----0----|
|--2--------2----2-----2----2-----x---------|
|--0--------0----0-----0----0-----x---------|
|
| Gtr III
| |--3--| |---3---| |---3---| |---3---|
| E E E E E E E E E E E E
|-14s12-10-12-10----9-10--9----7--9--7----5-|
|-------------------------------------------|
|-------------------------------------------|
|-------------------------------------------|
|-------------------------------------------|
|-------------------------------------------|


D.S. al Coda
|---3---| |---3---| |---3----|
E E E E E E E E E E E
|-14-14---14-14-14---14-14--14---14-14--------||
|---------------------------------------------||
|---------------------------------------------||
|---------------------------------------------||
|---------------------------------------------||
|---------------------------------------------||
|
| E E E E +E E E E
|---------------------------------------------||
|-------0----------0----(0)----0-----0--------||
|-------2----------2----(2)----2-----2---0----||
|-------0----------0----(0)----0-----0---0----||
|---------------------------------------------||
|---------------------------------------------||
|
| |---3---| |---3---| |---3----| |--3--|
| E E E E E E E E E E E E
|--7--5----3--5--3----2--3---2----0--2p0------||
|------------------------------------------3--||
|---------------------------------------------||
|---------------------------------------------||
|---------------------------------------------||
|---------------------------------------------||


Outro
&
Em9 D6/F# D6/E Em9 D6/F# D6/E
Q E E E E E E E E E E E E E E Q E E E E E E E E E E E E E E 8x
||-----2-2-------2-2-|---2---2-2-2-2-2-|----2-2-------2-2-|---2---2-2-2-2-2---||
||o----0-0-------0-0-|---0---0-0-0-0-0-|----0-0-------0-0-|---0---0-0-0-0-0--o||
||-----0-0-------0-0-|-2-2-2-2-2-2-2-2-|----0-0-------0-0-|-2-2-2-2-2-2-2-2---||
||--2--2-2--2--2-2-2-|-0---0---0-0-0-0-|-2--2-2--2--2-2-2-|-0---0---0-0-0-0---||
||o-0-------0--0-----|-2---2-----------|-0-------0--0-----|-2---2------------o||
||--2-------2--2-----|---------0-0-0-0-|-2-------2--2-----|---------0-0-0-0---||
|
| Q E E +E E E E E E E E E E E E Q E E +E E E E E E E E E E E E 8x
||--2--2-2-(2)-2-2-2-|-0-0-0-0-0-0-0-0-|-2--2-2-(2)-2-2-2-|-0-0-0-0-0-0-0-0---||
||o-3--3-3-(3)-3-3-3-|-0-0-0-0-0-0-0-0-|-3--3-3-(3)-3-3-3-|-0-0-0-0-0-0-0-0--o||
||--0--0-0-(0)-0-0-0-|-2-2-2-2-2-2-2-0-|-0--0-0-(0)-0-0-0-|-2-2-2-2-2-2-2-0---||
||--0--0-0-(0)-0-0-0-|-0-0-0-0-0-0-0-0-|-0--0-0-(0)-0-0-0-|-0-0-0-0-0-0-0-0---||
||o-2--2-2-(2)-2-2-2-|-0-0-0-0-2---2---|-2--2-2-(2)-2-2-2-|-0-0-0-0-2---2----o||
||--0--0-0-(0)-0-0-0-|-2-2-2-2-0---0---|-0--0-0-(0)-0-0-0-|-2-2-2-2-0---0-----||


Duration Legend
---------------
W - whole; H - half; Q - quarter; E - 8th; S - 16th; T - 32nd; X - 64th; a - acciaccatura
+ - note tied to previous; . - note dotted; .. - note double dotted
Uncapitalized letters represent notes that are staccato (1/2 duration)
Irregular groupings are notated above the duration line
Duration letters will always appear directly above the note/fret number it represents the
duration for. Duration letters with no fret number below them represent rests. Multi-
bar rests are notated in the form Wxn, where n is the number of bars to rest for. Low
melody durations appear below the staff

Tablature Legend
----------------
h - hammer-on
p - pull-off
b - bend
pb - pre-bend
r - bend release (if no number after the r, then release immediately)
/\ - slide into or out of (from/to "nowhere")
s - legato slide
S - shift slide
- natural harmonic
[n] - artificial harmonic
n(n) - tapped harmonic
~ - vibrato
tr - trill
T - tap
TP - trem. picking
PM - palm muting
\n/ - tremolo bar dip; n = amount to dip
\n - tremolo bar down
n/ - tremolo bar up
/n\ - tremolo bar inverted dip
= - hold bend; also acts as connecting device for hammers/pulls
<> - volume swell (louder/softer)
x - on rhythm slash represents muted slash
o - on rhythm slash represents single note slash

Misc Legend
-----------
| - bar
|| - double bar
||o - repeat start
o|| - repeat end
*| - double bar (ending)
: - bar (freetime)
$ - Segno
& - Coda
Tempo markers - = BPM(8/16=s8/s16), where s8 = swing 8ths, s16 = swing 16ths
Song info
Horse With No Name
America
2001
  • Rock
  • Classic Rock
  • Soft Rock
Alternative tracks
Similar songs
Peace Of Mind - Boston
Broken Wings - Mister Mister
Oh Sherrie - Steve Perry
Little Fighter - White Lion
Gone Gone Gone - Bad Company

Hi! Hope you enjoy backing track experience.
If you want to help us in the development of the project, feel free to donate!