After the Rain - Angels
00:00 / 00:00
Tabs and lyrics
Tunning: Nashville (E A D G B E)
AFTER THE RAIN
The Angels
E|--------------------------------------------------------------------------|
B|--------------------------------------------------------------------------|
G|--------------------------------------------------------------2-----------|
D|-2s6----------------------------------------------------------2-----------|
A|-------7---------7--9-----5-----------5--7--------------------0-----------|
E|------------7--9----------------5--7----------3--2-0---3--2-0-------------|

Verse (chords)
E

E|-------|
B|-------|
G|-------|
D|--2----|
A|--2----|
E|--0----|

F sharp

E|-------|
B|-------|
G|--3----|
D|--4----|
A|--4----|
E|--2----|

A

E|-------|
B|-------|
G|--2----|
D|--2----|
A|--0----|
E|-------|

E

E|-------|
B|-------|
G|-------|
D|--2----|
A|--2----|
E|--0----|

CHORUS
I may have the strumming wrong hear so just listen to the song to get it right.
E|---------------------------------------------------------------------------|
B|---------------------------------------------------------------------------|
G|-9-8--7-6----9-9-9--7-7-6-4----9-8-7-6---7777777---------------------------|
D|-9-8--7-6----9-9-9--7-7-6-4----9-8-7-6---7777777--7777777----------------2-|
A|-7-6--5-4----7-7-7--5-5-4-2----7-6-5-4---5555555--7777777----------------2-|
E|------------------------------------------------- 5555555---3-2-0-3-2-0--0-|

See ya,
ac--dc
Song info
After the Rain
Angels
2001
  • Rock
  • Alternative Rock
  • New Wave
Similar songs
Make Me Wanna Die - The Pretty Reckless
When You Were Young - The Killers
Warped - Red Hot Chili Peppers
Dirty Little Secret - All American Rejects
Diary Of Jane - Breaking Benjamin

Hi! Hope you enjoy backing track experience.
If you want to help us in the development of the project, feel free to donate!