I Bet You Look Good On The Dancefloor - Arctic Monkeys
00:00 / 00:00
Tabs and lyrics
Tunning: Standard (E A D G B e)
Arctic Monkeys
I Bet You Look Good On The Dancefloor


[Intro] - Lead

e|-------------------------|
B|-------------------------|
G|-------------------------|
D|--4-4--------------------|
A|--4-4--------------------|
E|--2-2--------------------|

e|-----------------------------------------------------------------------|
B|-----------------------------------------------------------------------|
G|----------------9--11--14--16--16b-16b-16b-16b-16b-16b-16b-16b--14-----|
D|-----7--9--11----------------------------------------------------------|
A|--9--------------------------------------------------------------------|
E|-----------------------------------------------------------------------|

e|------------------------------------------------------------|
B|------------------------------------------------------------|
G|-----14-16-14--------------14-16b-14--------------14-16b----|
D|------------------16-14-16---------------16-14-16-----------|
A|------------------------------------------------------------|
E|------------------------------------------------------------|

e|-------------------------------------------------------------------------|
B|-------------------------------------------------------------------------|
G|--16-16-16-16-14-------------14------------------------------------------|
D|--------------------16-14-16-----16---16-16-16-16-14------------14-------|
A|-------------------------------------------------------16-14-16-----16---|
E|-------------------------------------------------------------------------|

e|----------------------------------------------------------------|
B|----------------------------------------------------------------|
G|----------------------------------------------------------------|
D|----------------------------------------------------------------|
A|--14-----------------14------------------14-14-14-14------------|
E|------17-14\12/14-17-----17-14\12/14-17-------------------------|


[Verse]

[Stop making the eyes at me..]
e|----------------------------|
B|----------------------------|
G|--6-6--4-4------------------|
D|--6-6--4-4--5-5--4-4--------| x8
A|--4-4--2-2--5-5--4-4--------|
E|------------3-3--2-2--------|


[Chorus]

[I bet that you look good on the dancefloor..]
e|----------------------------------------------------------------------|
B|----------------------------------------------------------------------|
G|-------------------9-----------------------9--------6-----------------|
D|--4--------5-------9-x8----4-------5-------9--x8----6--x8-------------|
A|--4-x8-----5-x8----7-------4-x16---5-x8----7--------4-----------------|
E|--2--------3---------------2-------3----------------------------------|


Lead at end of chorus
e|-----------------------------------------------------------------|
B|-----------------------------------------------------------------|
G|--11------9-9-9--9-9-9--7-------7-9-7-9--------9------9----------|
D|------12-------------------9----------------11-----11------------|
A|-----------------------------------------------------------------|
E|-----------------------------------------------------------------|

e|----------------------------------------------------------------------|
B|----------------------------------------------------------------------|
G|-----14-----14--16--14--16b-------------------------------------------|
D|-16-----16------------------------------------------------------------|
A|----------------------------------------------------------------------|
E|----------------------------------------------------------------------|


[Verse 2]

[I wish you'd stop ignoring me..]
e|------------------------------|
B|------------------------------|
G|--6-6--4-4--------------------|
D|--6-6--4-4--5-5--4-4----------| x8
A|--4-4--2-2--5-5--4-4----------|
E|------------3-3--2-2----------|


[Chorus]

[I bet that you look good on the dancefloor..]
e|----------------------------------------------------------------------|
B|----------------------------------------------------------------------|
G|-------------------9------------------------9--------6----------------|
D|--4--------5-------9-x8-----4-------5-------9--x8----6--x8------------|
A|--4-x8-----5-x8----7--------4-x16---5-x8----7--------4----------------|
E|--2--------3----------------2-------3---------------------------------|


[Bridge]

[Well there ain't no love, no montegues or capulets..]
e|-------------------------------------------------------------------|
B|-------------------------------------------------------------------|
G|----------9-----------------------9--------------------------------|
D|--7-------9--x8---4--------7------9--x8------------4---------------|
A|--7-x8----7-------4-x16----7-x8---7----------------4--x16----------|
E|--5---------------2--------5-----------------------2---------------|


[Chorus]

[I bet that you look good on the dancefloor..]
e|-------------------------------------------------------------------------|
B|-------------------------------------------------------------------------|
G|--------------------9-------------------------9--------6-----------------|
D|--4--------5--------9-x8----4--------5--------9--x8----6--x8-------------|
A|--4-x8-----5-x8-----7-------4-x16----5-x8-----7--------4-----------------|
E|--2--------3----------------2--------3-----------------------------------|


[End] on..

e|----------|
B|----------|
G|----------|
D|----4-----|
A|----4-----|
E|----2-----|



************************************

| x Dead note
| b Bend
| / Slide up
| \ Slide down

************************************
Tunning: Nashville (E A D G B E)
This is my first tab I've submitted, so hopefully it ends up looking all ok for you people.

Ok so this is the whole song tabbed, I would say this is basically it. I've layed it out
enough for you to be able to play it all the way through.


[Intro:] (guitar one)
E|---------------------||
B|---------------------||
G|---------------------||
D|-4-4--4-4--4-4--4-4--||
A|-4-4--4-4--4-4--4-4--||
E|-2-2--2-2--2-2--2-2--||

Do this 2 times, with a strum pattern of down up, but on the second time through leave
up strokes to ring.

Intro: (guitar two)

Guitar 2 does the same as guitar 1 for the first time round, but on the second time he plays
F# using the up down up down strum pattern and keeps going all the way through the solo
the first verse.


[Solo]

E|-------------------------------------------------------------------------------------------------|||
B|-------------------------------------------------------------------------------------------------|||
G|----------------------------------------9-9-9-9-11-11-11-11-14-14-14-14-16-16-16-16-14-16b(x8)---|||
D|-------------------9-9-9-9-11-11-11-11-11--------------------------------------------------------|||
A|9-9-9-9-12-12-12-12------------------------------------------------------------------------------|||
E|-------------------------------------------------------------------------------------------------|||


Basically you hit everyone note 4 times and I recommend you do an up down stroke all the way
through that until you do the 16th fret bend 8 times which you should do just down strokes.

E|--------------------------------------------------------------||
B|--------------------------------------------------------------||
G|16-14--------14-16-14--------14-16b-16--161616-14--------14---||
D|-----16-14-16--------16-14-16--------------------16-14-16--16-||
A|--------------------------------------------------------------||
E|--------------------------------------------------------------||

E|--------------------------------------------------------------||
B|--------------------------------------------------------------||
G|11-11-11-9--------9--------9----------------------------------||
D|-----------11-9-11--11-9-11--11-9---9----11b(x8)-9--------9---||
A|---------------------------------12--12-----------12-9-12--9--||
E|--------------------------------------------------------------||

On the 6th and 7th time of the bend on the 11 fret on the d string, let the bend down and
the final 8th time you hit the string it's just the normal note on the 11th fret of the D
(C#)


[Verse]
E|---------------------------||
B|---------------------------||
G|---------------------------||
D|-11-11--9-9-9-9--7-7-7--4--||
A|-11-11--9-9-9-9--7-7-7--4--||
E|-9--9---7-7-7-7--5-5-5--2--||

Play the verse 8 times but on the 5th fret hit the chord then lift it up after
one. If you listen to the song you'll hear the guitarist does it, and hit's the string
each different 5th chord but deadens them. But they're the chords to use but just figure
out how you play it whilst listening to the track.


[Chorus]

[Chorus]
E|------------------------------------------------------------------------------------||
B|------------------------------------------------------------------------------------||
G|------------------------------------------------------------------------------------||
D|-4-4-4-4-4-4-4-4--7-7-7-7-7-7-7-7--14-14-14-14-14-14-14-14--16-16-16-16-16-16-16-16-||
A|-4-4-4-4-4-4-4-4--7-7-7-7-7-7-7-7--14-14-14-14-14-14-14-14--16-16-16-16-16-16-16-16-||
E|-2-2-2-2-2-2-2-2--5-5-5-5-5-5-5-5--12-12-12-12-12-12-12-12--14-14-14-14-14-14-14-14-||

E|------------------------------------------------------------------------------------------||
B|------------------------------------------------------------------------------------------||
G|------------------------------------------------------------------------------------------||
D|-4-4-4-4-4-4-4-4--7-7-7-7-7-7-7-7--14-14-14-14-14-14-14-14--11-11-11-11-11-11-11-11-------||
A|-4-4-4-4-4-4-4-4--7-7-7-7-7-7-7-7--14-14-14-14-14-14-14-14--11-11-11-11-11-11-11-11-------||
E|-2-2-2-2-2-2-2-2--5-5-5-5-5-5-5-5--12-12-12-12-12-12-12-12--9--9--9--9--9--9---9--9--9--9-||


2nd solo after the first Chorus:

E|-------------------------------------------------------||
B|-------------------------------------------------------||
G|-------------------------------------------------------||
D|--11-----9-9-9-9-9-9--7----------------------7-9-7-9---||
A|-----12-----------------9---9-9-9-7-9-9-7-9------------||
E|-------------------------------------------------------||

E|-------------------------------------------------------||
B|-------------------------------------------------------||
G|-----9----9--11-------14----14-16-14-16b---------------||
D|--11---11----------16----16----------------------------||
A|-------------------------------------------------------||
E|-------------------------------------------------------||


The part after the 2nd chorus where he sings "Oh there ain't no love no monituques or
etc, you carry on with the structure of the chorus but instead of starting the 2nd fret
just go straight on to the 5th fret and carry on with the usual structure of the chorus.

Ok then the at the end of that before the start of the chorus, just do the intro again
but modify it, so you do the 2nd fret down up 8 times, then do it approximately 16 times with
gaps inbetween them until it goes silent and "I BET THAT YOU LOOK GOOD ON THE DANCE FLOOR!" is shouted.

It then goes back into the chorus but starts on the 5th fret instead of the 2nd.

Structure:

[Intro]
[Solo]
[Verse]
[Chorus]
[2nd Solo]
[Verse]
[Chorus]
Extended part of the chorus
Modified Intro
[Chorus]


I hope I've done a good job with my first tab, if you think anything is wrong, or want
let me know I've done a good job, my email address is josh_rowley_@hotmail.com

Enjoy!
Tunning: Standard (E A D G B e)
----------------------------------------------------------------------
I BET YOU LOOK GOOD ON THE DANCEFLOOR - ARCTIC MONKEYS
----------------------------------------------------------------------

Band: Arctic Monkeys
Song: I Bet You Look Good On The Dancefloor
Album: Whatever People Say I Am, That's What I'm Not (2006)


Tabbed by: skatersic666
Email: totalrock2003@yahoo.com

Tuning: STANDARD (E A D G B e)

This is tabbed out for guitar one and guitar two.
Listen to the CD to get the strumming correct.

Any correcton i will be happy to change.


7-4-06 - Changed the verse riffs, made a few alterations, corrected
some of the lyrics
----------------------------------------------------------------------|
----------------------------------------------------------------------|

THE START OF THE INTRO IS PLAYED BY BOTH GUITARS GUITAR TWO PLAYS AN
F#5 AND GUITAR ONE PLAYS STRUMMED NATURAL HARMONICS ON THE 2RD FRET.
LISTEN TO THE CD TO GET THE ACTUAL RYTHEM AND TIMING BECAUSE ITS HARD
TO FULLY REPLICATE IT IN THE TAB

THE BRIDGE IS KIND OF THE SAME AS THE INTRO. YOU WILL HAVE TO LISTEN
TO THE CD TO GET THE TIMING OF THE HARMONICS RIGHT.

BOTH GUITARS COULD PLAY THE F#5 AND HARMONICS INBETWEEN THE F#5 BUT I
COULDNT TAB IT OUT LIKE THAT BUT IM SURE THATS HOW IT IS PLAYED, USE
CONTINEOUS STRUMMING


[Intro]

N.C F#5 N.C F#5 N.C
GUITAR ONE (Distortion)
e|-------------------------------------------------------------------|
B|-------------------------------------------------------------------|
G|-<2>--<2>--<2>--4---<2>-<2>-<2>-<2>-<2>-<2>---4---<2>-<2>-<2>-<2>--|
D|-<2>--<2>--<2>--4---<2>-<2>-<2>-<2>-<2>-<2>---4---<2>-<2>-<2>-<2>--|
A|-<2>--<2>--<2>--4---<2>-<2>-<2>-<2>-<2>-<2>---4---<2>-<2>-<2>-<2>--|
E|-<2>--<2>--<2>--2---<2>-<2>-<2>-<2>-<2>-<2>---2---<2>-<2>-<2>-<2>--|
|F#5
e|-------------------------------------------------------------------|
B|-------------------------------------------------------------------|
G|-4-----4--------4-----------------------------4--------------------|
D|-4-----4--------4-----------------------------4--------------------|
A|-4-----4--------4-----------------------------4--------------------|
E|-2---0-2------0-2---------------------------0-2--------------------|

F#5 E5
e|-------------------------------------------------------------------|
B|-------------------------------------------------------------------|
G|-<2>-<2>---/16-----------/16-16-16-16-16-16-16-16\14-14-14-14-14---|
D|-<2>-<2>---/16-----------/16-16-16-16-16-16-16-16\14-14-14-14-14---|
A|-<2>-<2>---/16-----------/16-16-16-16-16-16-16-16\14-14-14-14-14---|
E|-<2>-<2>---/14-----------/14-14-14-14-14-14-14-14\12-12-12-12-12---|
| F#5
e|-------------------------------------------------------------------|
B|-------------------------------------------------------------------|
G|------------4------4----4-----------------------4------------------|
D|------------4------4----4-----------------------4------------------|
A|------------4------4----4-----------------------4------------------|
E|----------0-2----0-2----2---------------------0-2------------------|

N.C
e|-------------------------------------------------------------------|
B|-------------------------------------------------------------------|
G|-14-14-14-14-------------------------------------------9-9-9-9-11--|
D|-14-14-14-14-----------------------9-9-9-9-11-11-11-11-------------|
A|-14-14-14-14---9-9-9-9-12-12-12-12---------------------------------|
E|-12-12-12-12-------------------------------------------------------|
|
e|-------------------------------------------------------------------|
B|-------------------------------------------------------------------|
G|--------------4----------------------------------------------------|
D|--------------4-4-4-4-4-4--4--4--4--4-4-4-4-4--4--4--4--4-4-4-4--4-|
A|--------------4-4-4-4-4-4--4--4--4--4-4-4-4-4--4--4--4--4-4-4-4--4-|
E|------------0-2-2-2-2-2-2--2--2--2--2-2-2-2-2--2--2--2--2-2-2-2--2-|

N.C
e|-------------------------------------------------------------------|
B|-------------------------------------------------------------------|
G|-11-11-11-14-14-14-14-16-16-16-16-16b-16b-16b-16b-16b-16b-16b-16b--|
D|-------------------------------------------------------------------|
A|-------------------------------------------------------------------|
E|-------------------------------------------------------------------|
| F#5
e|-------------------------------------------------------------------|
B|-------------------------------------------------------------------|
G|-------------------------------------------------------------------|
D|4--4--4--4--4--4--4--4--4--4--4--4---4---4---4---4---4---4---4---4-|
A|4--4--4--4--4--4--4--4--4--4--4--4---4---4---4---4---4---4---4---4-|
E|2--2--2--2--2--2--2--2--2--2--2--2---2---2---2---2---2---2---2---2-|

N.C
e|-------------------------------------------------------------------|
B|-------------------------------------------------------------------|
G|16-14----------14---16-14-----------14---16b(18)=r16====-16--16-16-|
D|------16-14-16------------16-14-16---------------------------------|
A|-------------------------------------------------------------------|
E|-------------------------------------------------------------------|
| F#5
e|-------------------------------------------------------------------|
B|-------------------------------------------------------------------|
G|-------------------------------------------------------------------|
D|-4--4--4--4--4-----4--4--4--4--4--4-------11-11-9--9-9-x--7--7--4-x|
A|-4--4--4--4--4-----4--4--4--4--4--4-------11-11-9--9-9-x--7--7--4-x|
E|-2--2--2--2--2-----2--2--2--2--2--2-------9--9--7--7-7-x--5--5--2-x|
^ CLEAN TONE
N.C
e|-------------------------------------------------------------------|
B|-------------------------------------------------------------------|
G|-16-14--------------14---------------------------------------------|
D|---------16---14-16----16--16--16-16-16-14-----------14------------|
A|--------------------------------------------16-14-16----16---------|
E|-------------------------------------------------------------------|
| C#5 B5 A5 F#5 C#5 B5 A5 F#5 C#5 B5
e|-------------------------------------------------------------------|
B|-------------------------------------------------------------------|
G|-------------------------------------------------------------------|
D|-11-11-9--9-9-x--7--7--4-x--11-11-9--9-9-x--7--7--4-x---11-11-9--9-|
A|-11-11-9--9-9-x--7--7--4-x--11-11-9--9-9-x--7--7--4-x---11-11-9--9-|
E|-9--9--7--7-7-x--5--5--2-x--9--9--7--7-7-x--5--5--2-x---9--9--7--7-|

N.C
e|-------------------------------------------------------------------|
B|-------------------------------------------------------------------|
G|-------------------------------------------------------------------|
D|-------------------------------------------------------------------|
A|-16--16-16-14--12----14-12-------------12--14-12---------12--------|
E|----------------------------14-12-14-----------14-12-14------------|
| A5 F#5 C#5 B5 A5 F#5 C#5 B5
e|-------------------------------------------------------------------|
B|-------------------------------------------------------------------|
G|-------------------------------------------------------------------|
D|-9-x--7--7--4-x--11-11-9--9-9-x--7--7--4-x--11-11-9--9-9-x---------|
A|-9-x--7--7--4-x--11-11-9--9-9-x--7--7--4-x--11-11-9--9-9-x---------|
E|-7-x--5--5--2-x--9--9--7--7-7-x--5--5--2-x--9--9--7--7-7-x---------|

N.C
e|-------------------------------------------------------------------|
B|-------------------------------------------------------------------|
G|-------------------------------------------------------------------|
D|-------------------------------------------------------------------|
A|14b15-15-15-15r14\-------------------------------------------------|
E|-------------------------------------------------------------------|
| A5 F#5
e|-------------------------------------------------------------------|
B|-------------------------------------------------------------------|
G|-------------------------------------------------------------------|
D|-7---7---4--x------------------------------------------------------|
A|-7---7---4--x------------------------------------------------------|
E|-5---5---2--x------------------------------------------------------|


[Verse 1] GUITAR TWO (Clean Tone)

C#5 B5 A5 F#5 C#5 B5 A5 F#5
Stop making the eyes at me i'll stop making the eyes at you
What it is that suprises me is that I dont really want you to
your shoulders are frozen oh but you are an explosion
your name isnt Rio.. for sand And the fuse might result.Bang go!
e|---------------------------------|----------------------------------|
B|---------------------------------|----------------------------------|
G|---------------------------------|----------------------------------|
D|-11--11---9--9-9-x---7--7----4-x-|-11--11---9--9-9-x---7--7----4-x--|
A|-11--11---9--9-9-x---7--7----4-x-|-11--11---9--9-9-x---7--7----4-x--|
E|-9---9----7--7-7-x---5--5----2-x-|-9---9----7--7-7-x---5--5----2-x--|


[Chorus 1] GUITARS ONE AND TWO (Distortion)

F#5 A5
I bet that you look good on the dancefloor I don't if your looking for
e|---------------------------------------------------------------------|
B|---------------------------------------------------------------------|
G|---------------------------------------------------------------------|
D|4-4-4-4--4-4-4-4--4-4-4-4--4-4-4-4/7-7-7-7--7-7-7-7--7-7-7-7--7-7-7-7|
A|4-4-4-4--4-4-4-4--4-4-4-4--4-4-4-4/7-7-7-7--7-7-7-7--7-7-7-7--7-7-7-7|
E|2-2-2-2--2-2-2-2--2-2-2-2--2-2-2-2/5-5-5-5--5-5-5-5--5-5-5-5--5-5-5-5|
E5 F#5
romance or... I don't know what your looking for_______
e|---------------------------------------------------------------------|
B|---------------------------------------------------------------------|
G|---------------------------------------------------------------------|
D|/14-14-14-14--14-14-14-14--14-14-14-14--14-14-14-14/16-16-16-16------|
A|/14-14-14-14--14-14-14-14--14-14-14-14--14-14-14-14/16-16-16-16------|
E|/12-12-12-12--12-12-12-12--12-12-12-12--12-12-12-12/14-14-14-14------|

___________
e|---------------------------------------------------------------------|
B|---------------------------------------------------------------------|
G|---------------------------------------------------------------------|
D|-16-16-16-16--16-16-16-16--16-16-16-16-------------------------------|
A|-16-16-16-16--16-16-16-16--16-16-16-16-------------------------------|
E|-14-14-14-14--14-14-14-14--14-14-14-14-------------------------------|

F#5 A5
I said I bet tht u look good on the dancefloor dancing to electro-
e|---------------------------------------------------------------------|
B|---------------------------------------------------------------------|
G|---------------------------------------------------------------------|
D|4-4-4-4--4-4-4-4--4-4-4-4--4-4-4-4/7-7-7-7--7-7-7-7--7-7-7-7--7-7-7-7|
A|4-4-4-4--4-4-4-4--4-4-4-4--4-4-4-4/7-7-7-7--7-7-7-7--7-7-7-7--7-7-7-7|
E|2-2-2-2--2-2-2-2--2-2-2-2--2-2-2-2/5-5-5-5--5-5-5-5--5-5-5-5--5-5-5-5|

E5 C#5
pop like a robot from 1984_______
e|---------------------------------------------------------------------|
B|---------------------------------------------------------------------|
G|---------------------------------------------------------------------|
D|/14-14-14-14--14-14-14-14--14-14-14-14--14-14-14-14/11-11-11-11------|
A|/14-14-14-14--14-14-14-14--14-14-14-14--14-14-14-14/11-11-11-11------|
E|/12-12-12-12--12-12-12-12--12-12-12-12--12-12-12-12/9--9--9--9-------|

____ from 1984!
e|---------------------------------------------------------------------|
B|---------------------------------------------------------------------|
G|---------------------------------------------------------------------|
D|-11-11-11-11--11-11-11-11--11-11-11-11-------------------------------|
A|-11-11-11-11--11-11-11-11--11-11-11-11-------------------------------|
E|-9--9--9--9---9--9--9--9---9--9--9--9--------------------------------|


[Solo]

N.C
GUITAR ONE (Distortion)
e|---------------------------------------------------------------------|
B|---------------------------------------------------------------------|
G|---------------------------------------------------------------------|
D|---------------------------------------------------------------------|
A|-14--12------14-14-14--14-14-14---12-----------------------14-12---12|
E|------------------------------------14--14-14--14-14-12--14------14--|
|C#5 B5 A5 F#5 C#5 B5 A5 F#5 C#5 B5
|GUITAR TWO (Clean Tone)
e|---------------------------------------------------------------------|
B|---------------------------------------------------------------------|
G|---------------------------------------------------------------------|
D|-11-11-9--9-9-x--7--7--4-x--11-11-9--9-9-x--7--7--4-x--11-11-9--9-9-x|
A|-11-11-9--9-9-x--7--7--4-x--11-11-9--9-9-x--7--7--4-x--11-11-9--9-9-x|
E|-9--9--7--7-7-x--5--5--2-x--9--9--7--7-7-x--5--5--2-x--9--9--7--7-7-x|

N.C
e|---------------------------------------------------------------------|
B|---------------------------------------------------------------------|
G|---------------------14-----14--16b17-17-17 17r16\-------------------|
D|-------14-16--14-16------16------------------------------------------|
A|-14/16---------------------------------------------------------------|
E|---------------------------------------------------------------------|
| A5 F#5 C#5 B5 A5 F#5
e|---------------------------------------------------------------------|
B|---------------------------------------------------------------------|
G|---------------------------------------------------------------------|
D|-7--7--4-x---11----------11---9--9-9-x--7--7--4-x--------------------|
A|-7--7--4-x---11----------11---9--9-9-x--7--7--4-x--------------------|
E|-5--5--2-x---9-----------9----7--7-7-x--5--5--2-x--------------------|


[Verse 2] GUITAR TWO (Clean Tone)

C#5 B5 A5 F#5 C#5 B5 A5 F#5
I wish you would stop ignoring me cause its sending me to dispare
Without a sound yeah ur calling me and i dont think its very fair
your shoulders are frozen oh but you are an explosion
your name isnt Rio.Sound-alikes And the fuse might result.Bang go!
e|---------------------------------|----------------------------------|
B|---------------------------------|----------------------------------|
G|---------------------------------|----------------------------------|
D|-11--11---9--9-9-x---7--7----4-x-|-11--11---9--9-9-x---7--7----4-x--|
A|-11--11---9--9-9-x---7--7----4-x-|-11--11---9--9-9-x---7--7----4-x--|
E|-9---9----7--7-7-x---5--5----2-x-|-9---9----7--7-7-x---5--5----2-x--|


[Chorus 2] GUITARS ONE AND TWO (Distortion)

F#5 A5
I bet that you look good on the dancefloor I don't if your looking for
e|---------------------------------------------------------------------|
B|---------------------------------------------------------------------|
G|---------------------------------------------------------------------|
D|4-4-4-4--4-4-4-4--4-4-4-4--4-4-4-4/7-7-7-7--7-7-7-7--7-7-7-7--7-7-7-7|
A|4-4-4-4--4-4-4-4--4-4-4-4--4-4-4-4/7-7-7-7--7-7-7-7--7-7-7-7--7-7-7-7|
E|2-2-2-2--2-2-2-2--2-2-2-2--2-2-2-2/5-5-5-5--5-5-5-5--5-5-5-5--5-5-5-5|

E5 F#5
romance or... I don't know what your looking for_______
e|---------------------------------------------------------------------|
B|---------------------------------------------------------------------|
G|---------------------------------------------------------------------|
D|/14-14-14-14--14-14-14-14--14-14-14-14--14-14-14-14/16-16-16-16------|
A|/14-14-14-14--14-14-14-14--14-14-14-14--14-14-14-14/16-16-16-16------|
E|/12-12-12-12--12-12-12-12--12-12-12-12--12-12-12-12/14-14-14-14------|

___________
e|---------------------------------------------------------------------|
B|---------------------------------------------------------------------|
G|---------------------------------------------------------------------|
D|-16-16-16-16--16-16-16-16--16-16-16-16-------------------------------|
A|-16-16-16-16--16-16-16-16--16-16-16-16-------------------------------|
E|-14-14-14-14--14-14-14-14--14-14-14-14-------------------------------|

F#5 A5
I said I bet tht u look good on the dancefloor dancing to electro-
e|---------------------------------------------------------------------|
B|---------------------------------------------------------------------|
G|---------------------------------------------------------------------|
D|4-4-4-4--4-4-4-4--4-4-4-4--4-4-4-4/7-7-7-7--7-7-7-7--7-7-7-7--7-7-7-7|
A|4-4-4-4--4-4-4-4--4-4-4-4--4-4-4-4/7-7-7-7--7-7-7-7--7-7-7-7--7-7-7-7|
E|2-2-2-2--2-2-2-2--2-2-2-2--2-2-2-2/5-5-5-5--5-5-5-5--5-5-5-5--5-5-5-5|

E5 C#5
pop like a robot from 1984_______
e|---------------------------------------------------------------------|
B|---------------------------------------------------------------------|
G|---------------------------------------------------------------------|
D|/14-14-14-14--14-14-14-14--14-14-14-14--14-14-14-14/11-11-11-11------|
A|/14-14-14-14--14-14-14-14--14-14-14-14--14-14-14-14/11-11-11-11------|
E|/12-12-12-12--12-12-12-12--12-12-12-12--12-12-12-12/9--9--9--9-------|

A5
____ from 1984! No there aint
e|---------------------------------------------------------------------|
B|---------------------------------------------------------------------|
G|---------------------------------------------------------------------|
D|-11-11-11-11--11-11-11-11--11-11-11-11\7-7-7-7--7-7-7-7--7-7-7-7-----|
A|-11-11-11-11--11-11-11-11--11-11-11-11\7-7-7-7--7-7-7-7--7-7-7-7-----|
E|-9--9--9--9---9--9--9--9---9--9--9--9-\5-5-5-5--5-5-5-5--5-5-5-5-----|

E5 F#5
no love no Montagues or Capulets
e|---------------------------------------------------------------------|
B|---------------------------------------------------------------------|
G|---------9-9-9-9--9-9-9-9--9-9-9-9--9-9-9-9/11-11-11-11--11-11-11-11-|
D|-7-7-7-7-9-9-9-9--9-9-9-9--9-9-9-9--9-9-9-9/11-11-11-11--11-11-11-11-|
A|-7-7-7-7-7-7-7-7--7-7-7-7--7-7-7-7--7-7-7-7/9--9--9--9---9--9--9--9--|
E|-5-5-5-5-------------------------------------------------------------|

just bang-ing tunes 'n' DJ
e|---------------------------------------------------------------------|
B|---------------------------------------------------------------------|
G|-11-11-11-11--11-11-11-11--11-11-11-11--11-11-11-11--11-11-11-11-----|
D|-11-11-11-11--11-11-11-11--11-11-11-11--11-11-11-11--11-11-11-11-----|
A|-9--9--9--9---9--9--9--9---9--9--9--9---9--9--9--9---9--9--9--9------|
E|---------------------------------------------------------------------|

sets and dirty dance floors and dreams
e|---------------------------------------------------------------------|
B|---------------------------------------------------------------------|
G|11-11-11-11------------------------------------9-9-9-9--9-9-9-9------|
D|11-11-11-11-7-7-7-7--7-7-7-7--7-7-7-7--7-7-7-7-9-9-9-9--9-9-9-9------|
A|9--9--9--9--7-7-7-7--7-7-7-7--7-7-7-7--7-7-7-7-7-7-7-7--7-7-7-7------|
E|------------5-5-5-5--5-5-5-5--5-5-5-5--5-5-5-5-----------------------|

of naughtiness
e|---------------------------------------------------------------------|
B|---------------------------------------------------------------------|
G|-9-9-9-9--9-9-9-9----------------------------------------------------|
D|-9-9-9-9--9-9-9-9----------------------------------------------------|
A|-7-7-7-7--7-7-7-7----------------------------------------------------|
E|---------------------------------------------------------------------|


[Bridge]

GUITAR ONE (Distortion)
F#5
e|---------------------------------------------------------------------|
B|---------------------------------------------------------------------|
G|---------------------------------------------------------------------|
D|---4-------4-------4-------4-------4-------4-------4-------4-------4-|
A|---4-------4-------4-------4-------4-------4-------4-------4-------4-|
E|-0-2-----0-2-----0-2-----0-2-----0-2-----0-2-----0-2-----0-2-----0-2-|
| N.C
|GUITAR TWO (Distortion)
e|---------------------------------------------------------------------|
B|---------------------------------------------------------------------|
G|---<2>-<2>--<2>-<2>-<2>-<2>--<2>-<2>-<2>--<2>---<2>---<2>---<2>-<2>--|
D|---<2>-<2>--<2>-<2>-<2>-<2>--<2>-<2>-<2>--<2>---<2>---<2>---<2>-<2>--|
A|---<2>-<2>--<2>-<2>-<2>-<2>--<2>-<2>-<2>--<2>---<2>---<2>---<2>-<2>--|
E|---<2>-<2>--<2>-<2>-<2>-<2>--<2>-<2>-<2>--<2>---<2>---<2>---<2>-<2>--|

F#5 F#5 E5
e|---------------------------------------------------------------------|
B|---------------------------------------------------------------------|
G|---------------------------------------------------------------------|
D|---4-----4-----4-----4------4------4--/16-16-16-16--16-16-16-16\14-14|
A|---4-----4-----4-----4------4------4--/16-16-16-16--16-16-16-16\14-14|
E|-0-2---0-2---0-2---0-2----0-2----0-2--/14-14-14-14--14-14-14-14\12-12|
| N.C F#5 E5
e|---------------------------------------------------------------------|
B|---------------------------------------------------------------------|
G|-<2>-<2>--<2>-<2>--<2>-<2>---<2>-<2>---------------------------------|
D|-<2>-<2>--<2>-<2>--<2>-<2>---<2>-<2>--/16-16-16-16--16-16-16-16\14-14|
A|-<2>-<2>--<2>-<2>--<2>-<2>---<2>-<2>--/16-16-16-16--16-16-16-16\14-14|
E|-<2>-<2>--<2>-<2>--<2>-<2>---<2>-<2>--/14-14-14-14--14-14-14-14\12-12|

F#5
e|---------------------------------------------------------------------|
B|---------------------------------------------------------------------|
G|---------------------------------------------------------------------|
D|-14-14--14-14-14-14/16-----------------------------------------------|
A|-14-14--14-14-14-14/16-----------------------------------------------|
E|-12-12--12-12-12-12/14-----------------------------------------------|
| F#5
e|---------------------------------------------------------------------|
B|---------------------------------------------------------------------|
G|---------------------------------------------------------------------|
D|-14-14--14-14-14-14/16-----------------------------------------------|
A|-14-14--14-14-14-14/16-----------------------------------------------|
E|-12-12--12-12-12-12/14-----------------------------------------------|


[Chorus 3] GUITARS ONE AND TWO (Distortion)

A5
Well I bet that you look good on the dancefloor I don't if your looking for
e|---------------------------------------------------------------------|
B|---------------------------------------------------------------------|
G|---------------------------------------------------------------------|
D|-----------------------------------7-7-7-7--7-7-7-7--7-7-7-7--7-7-7-7|
A|-----------------------------------7-7-7-7--7-7-7-7--7-7-7-7--7-7-7-7|
E|-----------------------------------5-5-5-5--5-5-5-5--5-5-5-5--5-5-5-5|

E5 F#5
romance or... I don't know what your looking for_______
e|---------------------------------------------------------------------|
B|---------------------------------------------------------------------|
G|---------------------------------------------------------------------|
D|/14-14-14-14--14-14-14-14--14-14-14-14--14-14-14-14/16-16-16-16------|
A|/14-14-14-14--14-14-14-14--14-14-14-14--14-14-14-14/16-16-16-16------|
E|/12-12-12-12--12-12-12-12--12-12-12-12--12-12-12-12/14-14-14-14------|

___________
e|---------------------------------------------------------------------|
B|---------------------------------------------------------------------|
G|---------------------------------------------------------------------|
D|-16-16-16-16--16-16-16-16--16-16-16-16-------------------------------|
A|-16-16-16-16--16-16-16-16--16-16-16-16-------------------------------|
E|-14-14-14-14--14-14-14-14--14-14-14-14-------------------------------|

F#5 A5
I said I bet tht u look good on the dancefloor dancing to electro-
e|---------------------------------------------------------------------|
B|---------------------------------------------------------------------|
G|---------------------------------------------------------------------|
D|4-4-4-4--4-4-4-4--4-4-4-4--4-4-4-4/7-7-7-7--7-7-7-7--7-7-7-7--7-7-7-7|
A|4-4-4-4--4-4-4-4--4-4-4-4--4-4-4-4/7-7-7-7--7-7-7-7--7-7-7-7--7-7-7-7|
E|2-2-2-2--2-2-2-2--2-2-2-2--2-2-2-2/5-5-5-5--5-5-5-5--5-5-5-5--5-5-5-5|

E5 C#5
pop like a robot from 1984_______
e|---------------------------------------------------------------------|
B|---------------------------------------------------------------------|
G|---------------------------------------------------------------------|
D|/14-14-14-14--14-14-14-14--14-14-14-14--14-14-14-14/11-11-11-11------|
A|/14-14-14-14--14-14-14-14--14-14-14-14--14-14-14-14/11-11-11-11------|
E|/12-12-12-12--12-12-12-12--12-12-12-12--12-12-12-12/9--9--9--9-------|
F#5
____ I said from 1 9 8 4!_____
e|---------------------------------------------------------------------|
B|---------------------------------------------------------------------|
G|---------------------------------------------------------------------|
D|-11-11-11-11--11-11-11-11--11-11-11-11--4----------------------------|
A|-11-11-11-11--11-11-11-11--11-11-11-11--4----------------------------|
E|-9--9--9--9---9--9--9--9---9--9--9--9---2----------------------------|


IF YOU LIKE THIS TAB PLEASE RATE IT

THANK YOU.

**********************************************
| / slide up
| \ slide down
| h hammer-on
| p pull-off
| ~ vibrato
| + harmonic
| x Mute note
P.M Palm Mute
**********************************************



Tunning: Standard (E A D G B e)
I Bet That You Look Good On The Dancefloor


intro
F#


LEAD
over F# chord
|-------------------------------------------------------------|
|-------------------------------------------------------------|
|----------------9--11--14--16--16b-16b--16b--16b--16b--14----|
|-----7--9--11------------------------------------------------|
|--9----------------------------------------------------------|
|-------------------------------------------------------------|


|------------------------------------------------|
|------------------------------------------------|
|------------14--16b--14--------------14--16b----|
|16--14--16---------------16--14--16-------------|
|------------------------------------------------|
|------------------------------------------------|

Chords change to: C#5 B5 A5 F#m
|----------------------------------------------------------------|
|----------------------------------------------------------------|
|-16-16-16-16-14-----------14-----11-11-11-11-9--------9---------|
|----------------16-14-16-----16----------------11-9-11--11------|
|----------------------------------------------------------------|
|----------------------------------------------------------------|

fast run at the end i cnt work out, uses F# mninor pentaonic scale
the notes.. F# A B C# E in this position i think
|---------------------------------|
|---------------------------------|
|--------------9--11--------------|
|----7--9--11---------------------|
|--9------------------------------|
|---------------------------------|


VERSE
C#5 B5 A5 F#5 C# B A F#
stop makin th eyes at me il stop making the eyes at u...

continue with.. C# B A F# untill


CHORUS
F#m A E
i bet tht u look good on th dancefloor i dont know if ur looking for romance,
F#m
i dnt know wot ur looking for

F# A
well i bet tht u look good on th dancefloor dancing to elctro
E C#
pop like a robot from 1984..from 1984


lead at end of Chorus..

|-------------------------------------------------------|
|-------------------------------------------------------|
|-------------------------------------------------------|
|--11-----9-9-9-9-9-9--7----------------------7-9-7-9---|
|-----12-----------------9---9-9-9-7-9-9-7-9------------|
|-------------------------------------------------------|

---------------------------------------------------|
---------------------------------------------------|
-----9----9--11-------14----14-16-14-16b-----------|
--11---11----------16----16------------------------|
---------------------------------------------------|
---------------------------------------------------|


VERSE
C#5 B5 A5 F#5

CHORUS
F#m A E F# F#m A E C#


BRIDGE
A E F#
Tunning: Standard (E A D G B e)
I Bet That You Look Good On The Dancefloor
This is all from the single version of the song

Arctic Monkeys
www.arcticmonkeys.com
tabbed by meeee
tom tome182@aol.com


intro
F# x 8

Then into this


LEAD
F# chord
|-------------------------------------------------------------|
|-------------------------------------------------------------|
|-------------------------------------------------------------|
|-------------------------------------------------14-14-14-14-|
|-------------------------14-14-14-14-16-16-16-16-------------|
|-14-14-14-14-17-17-17-17-------------------------------------|


|-------------------------------------------------------------------|
|-------------------------------------------------------------------|
|------------14-14-14-14-16-16-16-16-16b-16b-16b-16b-16b-16b-16b-16b|
|16-16-16-16--------------------------------------------------------|
|-------------------------------------------------------------------|
|-------------------------------------------------------------------|
Start C#5 B5 A5 F#5 here
|--------------------------------------------|----------------------|
|--------------------------------------------|----------------------|
|16b-16-14----14-14-16-14----------14—16-16b-|16-16-16-16-14--------|
|----------16-------------16-14-16-----------|--------------16-14-16|
|--------------------------------------------|----------------------|
|--------------------------------------------|----------------------|

|-------------------------------------------------------------------|
|-------------------------------------------------------------------|
|14-----------------------------------------------------------------|
|---16---16-16-16-16-14----------14---------------------------------|
|-----------------------16-14-16---16-14-12-14-12----------12-14-12-|
|-------------------------------------------------14-12-14----------|

|-------------------------|
|-------------------------|
|-------------------------|
|-------------------------|
|---------12-14b14--------|
|14-12-14-----------------|

That last bend is held longer and slowly released back to normal 14

VERSE
C#5 B5 A5 F#5 C#5 B5 A5 F#5
Stop making the eyes at me ill stop making the eyes at you...

Continue with C#5 B5 A5 F#5 five more times

Then play C#5 B5 A5 E5 once leading into chorus


CHORUS

F#5 A5
I bet that u look good on the dance floor I don’t know if you’re

E5 played on 12th fret
Looking for romance,
F#5 played on 14th fret
I don’t know what you’re looking for

F#5 A5
I said I bet that that u look good on the dance floor dancing to electro
E5 (12th fret) C#
Pop like a robot from 1984..from 1984


End of first chorus

|------------------------------------------------------|
|------------------------------------------------------|
|------------------------------------------------------|
|------------------------------------------------------|
|-14----14-14-14-14-14-14-14---------------------------|
|----17----------------------17-14--14-14-12-14--------|

the rest is just played around the F# pentatonic at the 14th fret, very easy to work out

VERSE 2
C#5 B5 A5 F#5 x 7
C#5 B5 A5 E5 X 1

CHORUS
F#5 A5 E5 (12th fret) F#5(14th fret) x1
F#5 A5 E5 (12th fret) C#5 X1


BRIDGE
A5 E5 F#5
Well there aint no love no, Montague’s or capulets

Just banging tunes and DJ sets
A5 E5
And dirty dance floors, and dreams of naughtiness


F#5 played a lot
Listen to song for rhythm, and the use of harmonics
Also one guitar goes and plays 14thfret F# and ends on F#14th then E 12th fret, listen
correctness

CHORUS

F#5 A5
I bet that u look good on the dance floor I don’t know if you’re

E5 played on 12th fret
Looking for romance,
F#5 played on 14th fret
I don’t know what you’re looking for

F#5 A5
I said I bet that that u look good on the dance floor dancing to electro
E5 (12th fret) C#
Pop like a robot from 1984..from 1984

F#5 one strum left to ring!
Tunning: Standard (E A D G B e)
Here is the whole of the Arctic Monkeys first official release and number one record.
This tab has been created from the released version, not the demo.

Although a lot is based on how the record sounds, I've taken a lot of it from when I've
them play live and from the video. I dont think Ive seen a correct tab for the solo yet
im pretty confident that these are the ones that Alex actually plays.

I have laid it out as clearly as possible so even beginners can get to grips with it. I
also included a bar count aswell as timings to make life even easier. There's quite a
so it might be worth printing out.

Hope you enjoy it. Feel free to leave a comment. Any extra info or advice, just ask me at

tommyfellows@hotmail.com


I have included tabs for both Alex Turner (lead) and Jamie Cook (rhythm).

____________________________________________________________________________
****************************************************************************

LEAD GUITAR- Alex Turner

(Chords)
E| A| D| G| B| e|
_________________

Chord 1 F sharp 2| 4| 4| 3| 2| 2|
Chord 2 A 5| 7| 7| 6| 5| 5|
Chord 3 E 12|14|14|13|12|12|
Chord 4 F sharp(2) 14|16|16|15|14|14|
Chord 5 C sharp 9|11|11|10| 9| 9|

CHORD SHAPE (USED THROUGHOUT):

e.g. F SHARP

e ||-|1|-|-|-
B ||-|1|-|-|-
G ||-|-|2|-|-
D ||-|-|-|4|-
A ||-|-|-|3|-
E ||-|1|-|-|-
____________________________________________________________________________
____________________________________________________________________________

INTRODUCTION - 8 Bars 0-8 (0.00 - 0.09)

F SHARP
|-2~~---| |-2-XXXXX-| |22222222|
|-2~~---| |-2-XXXXX-| 2-4TH |22222222| 5-6TH
|-3~~---| 1st BAR |-3-XXXXX-| NEXT 3 BARS |33333333| THE NEXT 2 BARS
|-4~~---| |-4-XXXXX-| |44444444|
|-4~~---| |-4-XXXXX-| |44444444|
|-2~~---| |-2-XXXXX-| |22222222|

F SHARP(2) E
|1414141414141414| |1212121212121212|
|1414141414141414| 7TH |1212121212121212| 8TH
|1515151515151515| FOR 1 BAR |1313131313131313| FOR 1 BAR
|1616161616161616| |1414141414141414|
|1616161616161616| |1414141414141414|
|1414141414141414| |1212121212121212|

____________________________________________________________________________

1ST SOLO - 16 BARS 9-24 (0.10 - 0.27)

|-------------------------------------------------------------|
|-------------------------------------------------------------|
|-----------------------------------------9-9-9-9-11-11-11-11-|
|---------------------9-9-9-9-11-11-11-11---------------------|
|-9-9-9-9-12-12-12-12-----------------------------------------|
|-------------------------------------------------------------|

|--------------------------------------------------------|
|--------------------------------------------------------|
|-14-14-14-14-16-16-16-16-16b-16b-16b-16b-16b-16b-16b-16b|
|--------------------------------------------------------|
|--------------------------------------------------------|
|--------------------------------------------------------|

|--------------------------------------------------|
|--------------------------------------------------|
|-16-14----------14--16-14---------—14-16br16--| PLAY 16TH FRET AND BEND
|-------16-14-16-----------16-14-16----------------| UP TO 18 AND RELEASE.
|--------------------------------------------------|
|--------------------------------------------------|


|--------------------------------------------------------------|
|--------------------------------------------------------------|
|16-16-16-16-14----------14------------------------------------|
|---------------16-14-16----16---16-16-16-16-14----------14----|
|-----------------------------------------------16-14-16----16-|
|--------------------------------------------------------------|

|---------------------------------------------------------|
|---------------------------------------------------------|
|---------------------------------------------------------|
|---------------------------------------------------------|
|-14-12-14-12----------12-14-12----------12-14b151515r14\-|
|-------------14-12-14----------14-12-14------------------|

BEND THE 14TH FRET TO
15 FOR THE LAST 4 NOTES.
THEN RELEASE, AND SLIDE
BACK DOWN THE NECK.
____________________________________________________________________________

1ST PAUSE (verse) - 16 BARS 25-48 (0.28 - 0.45)

"Stop makin' the eyes at me......"

____________________________________________________________________________

1ST CHORUS

(PART 1) - 8 BARS 41-48 (0.46 - 0.55)

"I bet that you look good....."

F SHARP A
|-2-2-2-2-| |-5-5-5-5-|
|-2-2-2-2-| |-5-5-5-5-|
|-3-3-3-3-| 2 BARS |-6-6-6-6-| 2 BARS
|-4-4-4-4-| |-7-7-7-7-|
|-4-4-4-4-| |-7-7-7-7-|
|-2-2-2-2-| |-5-5-5-5-|

E F SHARP(2)
|-12-12-12-12-| |-14-14-14-14-|
|-12-12-12-12-| |-14-14-14-14-|
|-13-13-13-13-| 2 BARS |-15-15-15-15-| 2 BARS
|-14-14-14-14-| |-16-16-16-16-|
|-14-14-14-14-| |-16-16-16-16-|
|-12-12-12-12-| |-14-14-14-14-|


".....what you're lookin' for"


(PART 2) - 8 BARS 49-56 (0.56 - 1.04)

"Said I bet that you look good....."

F SHARP A
|-2-2-2-2-| |-5-5-5-5-|
|-2-2-2-2-| |-5-5-5-5-|
|-3-3-3-3-| 2 BARS |-6-6-6-6-| 2 BARS
|-4-4-4-4-| |-7-7-7-7-|
|-4-4-4-4-| |-7-7-7-7-|
|-2-2-2-2-| |-5-5-5-5-|

E C SHARP
|-12-12-12-12-| |- 9- 9- 9- 9-|
|-12-12-12-12-| |- 9- 9- 9- 9-|
|-13-13-13-13-| 2 BARS |-10-10-10-10-| 2 BARS
|-14-14-14-14-| |-11-11-11-11-|
|-14-14-14-14-| |-11-11-11-11-|
|-12-12-12-12-| |- 9- 9- 9- 9-|


"....from nineteen eighty-four!!!!"
____________________________________________________________________________

2ND SOLO - 8 BARS 57-64 (1.05 - 1.14)


|------------------------------------------------------------------------|
|------------------------------------------------------------------------|
|------------------------------------------------------------------------|
|------------------------------------------------------------------------|
|-/16--12---14-14-14-14-14-14-12-----------------------12-14-12-14-12-14-|
|--------------------------------14---1414141214-12-14-------------------|

|---------------------------------------------------|
|---------------------------------------------------|
|--------------------14----14----14-16b181818r16\---|
|---14----14---14-16----16----16--------------------|
|16----16---16--------------------------------------|
|---------------------------------------------------|

BEND THE 16TH FRET TO
18 FOR THE LAST 4 NOTES.
THEN RELEASE, AND SLIDE
BACK DOWN THE NECK.
___________________________________________________________________________

2ND PAUSE (verse) - 16 BARS 65-80 (1.15 - 1.32)

"I wish you'd stop ignorin' me because......"

____________________________________________________________________________

2ND CHORUS - 16 BARS 81-96 (1.33 - 1.51)

(SAME AS 1ST)

(PART 1) -

"I bet that you look good....."

F SHARP A
|-2-2-2-2-| |-5-5-5-5-|
|-2-2-2-2-| |-5-5-5-5-|
|-3-3-3-3-| 2 BARS |-6-6-6-6-| 2 BARS
|-4-4-4-4-| |-7-7-7-7-|
|-4-4-4-4-| |-7-7-7-7-|
|-2-2-2-2-| |-5-5-5-5-|

E F SHARP(2)
|-12-12-12-12-| |-14-14-14-14-|
|-12-12-12-12-| |-14-14-14-14-|
|-13-13-13-13-| 2 BARS |-15-15-15-15-| 2 BARS
|-14-14-14-14-| |-16-16-16-16-|
|-14-14-14-14-| |-16-16-16-16-|
|-12-12-12-12-| |-14-14-14-14-|


".....what you're lookin' for"


(PART 2) - 8 BARS 49-56 (0.56 - 1.04)

"Said I bet that you look good....."

F SHARP A
|-2-2-2-2-| |-5-5-5-5-|
|-2-2-2-2-| |-5-5-5-5-|
|-3-3-3-3-| 2 BARS |-6-6-6-6-| 2 BARS
|-4-4-4-4-| |-7-7-7-7-|
|-4-4-4-4-| |-7-7-7-7-|
|-2-2-2-2-| |-5-5-5-5-|

E C SHARP
|-12-12-12-12-| |- 9- 9- 9- 9-|
|-12-12-12-12-| |- 9- 9- 9- 9-|
|-13-13-13-13-| 2 BARS |-10-10-10-10-| 2 BARS
|-14-14-14-14-| |-11-11-11-11-|
|-14-14-14-14-| |-11-11-11-11-|
|-12-12-12-12-| |- 9- 9- 9- 9-|


"....from nineteen eighty-four!!!!"
____________________________________________________________________________

BRIDGE - 12 BARS 97-108 (1.52 - 2.04)

"Oh there ain't no love no....."

A E
|-5-5-5-5-| |-12-12-12-12-|
|-5-5-5-5-| |-12-12-12-12-|
|-6-6-6-6-| 2 BARS |-13-13-13-13-| 2 BARS
|-7-7-7-7-| |-14-14-14-14-|
|-7-7-7-7-| |-14-14-14-14-|
|-5-5-5-5-| |-12-12-12-12-|

F SHARP(2)
|-14-14-14-14-|
|-14-14-14-14-|
|-15-15-15-15-| 4 BARS
|-16-16-16-16-|
|-16-16-16-16-|
|-14-14-14-14-|

A E
|-5-5-5-5-| |-12-12-12-12-|
|-5-5-5-5-| |-12-12-12-12-|
|-6-6-6-6-| 2 BARS |-13-13-13-13-| 2 BARS
|-7-7-7-7-| |-14-14-14-14-|
|-7-7-7-7-| |-14-14-14-14-|
|-5-5-5-5-| |-12-12-12-12-|


".....and dreams of naughtiness"
____________________________________________________________________________

16 BARS 109-124 (2.05 - 2.24)

FIRST 8 BARS (2.05 - 2.14):-

F SHARP
|-2-2-XXXXX-|
|-2-2-XXXXX-| 109-116
|-3-3-XXXXX-| FOR 8 BARS
|-4-4-XXXXX-|
|-4-4-XXXXX-|
|-2-2-XXXXX-|


THE NEXT BIT IS SIMILAR TO THE INTRO BUT YOU SLIDE DOWN TO THE 14TH FRET
(F SHARP2) AT THE END OF THE SECOND AND FOURTH BARS

NEXT 8 BARS 117-124 (2.15 - 2.24)

F SHARP F SHARP(2)
|-2-2-2-2-| |-2-2/141414-|
|-2-2-2-2-| |-2-2/141414-| 117-120
|-3-3-3-3-| |-3-3/151515-| PLAY THESE TWO BARS TWICE (4 BARS)
|-4-4-4-4-| |-4-4/161616-|
|-4-4-4-4-| |-4-4/161616-|
|-2-2-2-2-| |-2-2/141414-|

F SHARP
|-2-2-2-2-|
|-2-2-2-2-|
|-3-3-3-3-| PLAY TWICE (2 BARS)
|-4-4-4-4-|
|-4-4-4-4-|
|-2-2-2-2-|

THEN...

F SHARP(2) E F SHARP(2)
|1414141414141414| |12121212121212-14|
|1414141414141414| 123TH BAR |12121212121212-14| 124TH BAR
|1515151515151515| 1 BAR |13131313131313-15| 1 BAR
|1616161616161616| |14141414141414-16|
|1616161616161616| |14141414141414-16|
|1414141414141414| |12121212121212-14|
^
^
MAKES SURE YOU END THE LAST BAR ON THE
14TH FRET FOR 1 BEAT
____________________________________________________________________________

STOP....
____________________________________________________________________________

3RD CHORUS - 17 BARS 127-141 (2.27 - 2.51)

REPEAT PREVIOUS CHORUS BUT DO NOT PLAY THE TWO BARS OF Fsharp SO YOU COME IN ON THE 3RD BAR.

(PART 1) - 8 BARS 127-134

"Well I bet that you look good on the....."

A
|---------| |-5-5-5-5-|
|---------| |-5-5-5-5-|
|---------| 2 BARS |-6-6-6-6-| 2 BARS
|---------| |-7-7-7-7-|
|---------| |-7-7-7-7-|
|---------| |-5-5-5-5-|

E F SHARP(2)
|-12-12-12-12-| |-14-14-14-14-|
|-12-12-12-12-| |-14-14-14-14-|
|-13-13-13-13-| 2 BARS |-15-15-15-15-| 2 BARS
|-14-14-14-14-| |-16-16-16-16-|
|-14-14-14-14-| |-16-16-16-16-|
|-12-12-12-12-| |-14-14-14-14-|

".....what you're lookin' for"


(PART 2) - 9 BARS 135-143

"Said I bet that you look good....."

F A
|-2-2-2-2-| |-5-5-5-5-|
|-2-2-2-2-| |-5-5-5-5-|
|-3-3-3-3-| 2 BARS |-6-6-6-6-| 2 BARS
|-4-4-4-4-| |-7-7-7-7-|
|-4-4-4-4-| |-7-7-7-7-|
|-2-2-2-2-| |-5-5-5-5-|

E C SHARP F SHARP
|-12-12-12-12-| |- 9- 9- 9- 9-| |-2-------|
|-12-12-12-12-| |- 9- 9- 9- 9-| |-2-------|
|-13-13-13-13-| 2 BARS |-10-10-10-10-| 2 BARS |-3-------|
|-14-14-14-14-| |-11-11-11-11-| |-4-------|
|-14-14-14-14-| |-11-11-11-11-| |-4-------|
|-12-12-12-12-| |- 9- 9- 9- 9-| |-2-------|


"....from nineteen eighty-four!!!!"

____________________________________________________________________________

\\\\\\\\\\\\\\\\\\\\\\\\\\\\\\\\\\\\\\\\\\\\\\\\\\\\\\\\\\\\\\\\\\\\\\\\\\\\
----------------------------------------------------------------------------
////////////////////////////////////////////////////////////////////////////
____________________________________________________________________________


RHYTHM GUITAR- Jamie Cook


(Chords)
E| A| D| G| B| e|
_________________

Chord 1 F sharp 2| 4| 4| 3| 2| 2|
Chord 2 A 5| 7| 7| 6| 5| 5|
Chord 3 A7add11 5| 5| 5| 6| 5| 5|
CHORD 4 B 7| 9| 9| 8| 7| 7|
Chord 5 E 12|14|14|13|12|12|
Chord 6 F sharp(2) 14|16|16|15|14|14|
Chord 7 C sharp 9|11|11|10| 9| 9|

CHORD SHAPE (USED THROUGHOUT):

e.g. F SHARP

e ||-|1|-|-|-
B ||-|1|-|-|-
G ||-|1|2|-|-
D ||-|1|-|4|-
A ||-|1|-|3|-
E ||-|1|-|-|-

____________________________________________________________________________
____________________________________________________________________________

INTRO - 16 BARS 0-16 (0.00 - 0.17)

F SHARP
|-2~~---| |-2-2-2-XXX-|
|-2~~---| 1-2 |-2-2-2-XXX-| 3-8
|-3~~---| FIRST 2 BARS |-3-3-2-XXX-| THE NEXT 6 BARS
|-4~~---| |-4-4-2-XXX-|
|-4~~---| |-4-4-2-XXX-|
|-2~~---| |-2-2-2-XXX-|
^
USE UPSTROKES FOR
THESE FIRST TWO CHORD

|-2-2-2-2-|
|-2-2-2-2-| 9-16
|-3-3-3-3-| 8 BARS
|-4-4-4-4-|
|-4-4-4-4-|
|-2-2-2-2-|

____________________________________________________________________________

1ST - VERSE - 24 BARS 17-40 (0.18 - 0.45)

C SHARP -> B -> A7add11 -> A -> F SHARP

|- 9-X-7-7-||X-5-5-2-|
|- 9-X-7-7-||X-5-5-2-|
|-10-X-8-8-||X-6-6-3-| REPEAT 11 TIMES (22 BARS)
|-11-X-9-9-||X-5-7-4-|
|-11-X-9-9-||X-5-7-4-|
|- 9-X-7-7-||X-5-5-2-|
^
^
RELEASE YOUR 3+4TH FINGER HERE TO LEAVE THE OPEN BAR ON THE 5TH [A7add11]
(IF YOU WATCH THE VIDEO CAREFULLY, YOU CAN SEE JAMIE DOING THIS).


HOWEVER, ON THE LAST 2 BARS OF THE VERSE THERE IS A SLIGHT CHANGE. IVE ONLY JUST SPOTTED
ITS JUST BUILDS YOU UP FOR THE CHORUS TO DROP IN. LISTEN OUT FOR IT YOURSELF. WORKS
WELL

|- 9-X-7-7-||X--5--2-|
|- 9-X-7-7-||X--5--2-|
|-10-X-8-8-||X--6--3-| PLAY ONCE (2 BARS)
|-11-X-9-9-||X--7--4-|
|-11-X-9-9-||X--7--4-|
|- 9-X-7-7-||X--5--2-|

____________________________________________________________________________

1ST CHORUS - 16 BARS 41-56 (0.46 - 1.04)


(PART 1) -

"I bet that you look good....."

F SHARP A
|-2-2-2-2-| |-5-5-5-5-|
|-2-2-2-2-| |-5-5-5-5-|
|-3-3-3-3-| 2 BARS |-6-6-6-6-| 2 BARS
|-4-4-4-4-| |-7-7-7-7-|
|-4-4-4-4-| |-7-7-7-7-|
|-2-2-2-2-| |-5-5-5-5-|

E F SHARP(2)
|-12-12-12-12-| |-14-14-14-14-|
|-12-12-12-12-| |-14-14-14-14-|
|-13-13-13-13-| 2 BARS |-15-15-15-15-| 2 BARS
|-14-14-14-14-| |-16-16-16-16-|
|-14-14-14-14-| |-16-16-16-16-|
|-12-12-12-12-| |-14-14-14-14-|

".....what you're lookin' for"

(PART 2) -

"Said I bet that you look good....."

F SHARP A
|-2-2-2-2-| |-5-5-5-5-|
|-2-2-2-2-| |-5-5-5-5-|
|-3-3-3-3-| 2 BARS |-6-6-6-6-| 2 BARS
|-4-4-4-4-| |-7-7-7-7-|
|-4-4-4-4-| |-7-7-7-7-|
|-2-2-2-2-| |-5-5-5-5-|

E C SHARP
|-12-12-12-12-| |- 9- 9- 9- 9-|
|-12-12-12-12-| |- 9- 9- 9- 9-|
|-13-13-13-13-| 2 BARS |-10-10-10-10-| 2 BARS
|-14-14-14-14-| |-11-11-11-11-|
|-14-14-14-14-| |-11-11-11-11-|
|-12-12-12-12-| |- 9- 9- 9- 9-|

"....from nineteen eighty-four!!!!"

____________________________________________________________________________


2ND VERSE - 24 BARS 57-80 (1.05 - 1.32)

REPEAT 1ST VERSE

____________________________________________________________________________

2ND CHORUS - 16 BARS 81-96 (1.33 - 1.51)

REPEAT 1ST CHORUS

____________________________________________________________________________

BRIDGE - 12 BARS 97-108 (1.52 - 2.04)

"Oh there ain't no love no....."

A E
|-5-5-5-5-| |-12-12-12-12-|
|-5-5-5-5-| |-12-12-12-12-|
|-6-6-6-6-| 2 BARS |-13-13-13-13-| 2 BARS
|-7-7-7-7-| |-14-14-14-14-|
|-7-7-7-7-| |-14-14-14-14-|
|-5-5-5-5-| |-12-12-12-12-|

F SHARP(2)
|-14-14-14-14-|
|-14-14-14-14-|
|-15-15-15-15-| 4 BARS
|-16-16-16-16-|
|-16-16-16-16-|
|-14-14-14-14-|

A E
|-5-5-5-5-| |-12-12-12-12-|
|-5-5-5-5-| |-12-12-12-12-|
|-6-6-6-6-| 2 BARS |-13-13-13-13-|
|-7-7-7-7-| |-14-14-14-14-|
|-7-7-7-7-| |-14-14-14-14-|
|-5-5-5-5-| |-12-12-12-12-|

".....and dreams of naughtiness"

____________________________________________________________________________


16 BARS 109-124 (2.05 - 2.24)

F SHARP
|-2-2-----|
|-2-2-----|
|-3-3-----|
|-4-4-----|
|-4-4-----|
|-2-2-----|

____________________________________________________________________________

STOP.....
____________________________________________________________________________

3RD CHORUS - 17 BARS 125-141 (2.27 - 2.51)

REPEAT PREVIOUS CHORUS BUT DO NOT PLAY THE TWO BARS OF Fsharp, SO THAT YOU COME IN ON
3RD BAR.

(PART 1) - 8 BARS 127-134

"Well I bet that you look good on the....."

A
|---------| |-5-5-5-5-|
|---------| |-5-5-5-5-|
|---------| 2 BARS |-6-6-6-6-| 2 BARS
|---------| |-7-7-7-7-|
|---------| |-7-7-7-7-|
|---------| |-5-5-5-5-|

E F SHARP(2)
|-12-12-12-12-| |-14-14-14-14-|
|-12-12-12-12-| |-14-14-14-14-|
|-13-13-13-13-| 2 BARS |-15-15-15-15-| 2 BARS
|-14-14-14-14-| |-16-16-16-16-|
|-14-14-14-14-| |-16-16-16-16-|
|-12-12-12-12-| |-14-14-14-14-|

".....what you're lookin' for"


(PART 2) - 9 BARS 135-143

"Said I bet that you look good....."

F SHARP A
|-2-2-2-2-| |-5-5-5-5-|
|-2-2-2-2-| |-5-5-5-5-|
|-3-3-3-3-| 2 BARS |-6-6-6-6-| 2 BARS
|-4-4-4-4-| |-7-7-7-7-|
|-4-4-4-4-| |-7-7-7-7-|
|-2-2-2-2-| |-5-5-5-5-|

E C SHARP F SHARP (let ring)
|-12-12-12-12-| |- 9- 9- 9- 9-| |-2-------|
|-12-12-12-12-| |- 9- 9- 9- 9-| |-2-------|
|-13-13-13-13-| 2 BARS |-10-10-10-10-| 2 BARS |-3-------|
|-14-14-14-14-| |-11-11-11-11-| |-4-------|
|-14-14-14-14-| |-11-11-11-11-| |-4-------|
|-12-12-12-12-| |- 9- 9- 9- 9-| |-2-------|


"....from nineteen eighty-four!!!!"

____________________________________________________________________________

Hope you find this useful, cheers...
Tunning: Standard (E A D G B e)
Song: I Bet You Look Good On The Dancefloor
Artist: Arctic Monkeys
Tuning: E A D G B e (Standard)
Guitars: 2
Tabbed by: Andy the rocker
Email: andypandyhind@hotmail.com

Intro
------------------
Guitar 1 (distorted):
e|-------------------------------------------------|
B|-------------------------------------------------|
G|-------------------------------------------------|
D|-4-----4-x-x-4-xxx-4-xxx-4~----4~----4~----2~----|
A|-4-----4-x-x-4-xxx-4-xxx-4~----4~----4~----2~----|
E|-2-----2-x-x-2-xxx-2-xxx-2~----2~----2~----0~----|

Guitar 2 (distorted):
e|-------------------------------------------------|
B|-------------------------------------------------| This overlaps
G|-------------------------------------------------| guitar 1
D|-4-----4-----4-----4-----4-----4-----4-----2-----| in the intro
A|-4-----4-----4-----4-----4-----4-----4-----2-----|
E|-2-----2-----2-----2-----2-----2-----2-----0-----|

Then to...

Guitar 1 (distorted):
e|---------------------------------------------------------------------|
B|---------------------------------------------------------------------|
G|----------9-11-14-16-16b(x8)-16-14----------14-16-14----------14-16b-|
D|---7-9-11--------------------------16-14-16----------16-14-16--------|
A|-9-------------------------------------------------------------------|
E|---------------------------------------------------------------------|
All notes are strum 4 times up until before the 16b(x8) where it changes to single notes.

Guitar 2 (distorted) (overlaps guitar 1):
e|-------------------------------------------------------------|
B|-------------------------------------------------------------|
G|-------------------------------------------------------------|
D|-4-4-4-4 play up until the bend at the end of guitar 1 above |
A|-4-4-4-4 listen to the record for timing --------------------|
E|-2-2-2-2 etc ------------------------------------------------|

Guitar 1 (distorted):
e|-----------------------------------------------Continued below------------|
B|--------------------------------------------------------------------------|
G|-16-16-16-14----------14------11-11-11-9---------9------------------------|
D|-------------16-14-16----16~-------------11-9-11---11-9----9--------------|
A|--------------------------------------------------------12---12-9----9-12-|
E|------------------------------------------------------------------12------|

Guitar 1 (continued):
e|------------------------|
B|------------------------|
G|------------------------|
D|-9--------------9b(x4)\-|
A|---12-9----9-12---------|
E|--------12--------------|

Then over the top is....

Guitar 2 (CLEAN):
e|------------------|
B|------------------|
G|------------------| x4
D|-11--9-9--7-7--4/-|
A|-11--9-9--7-7--4/-|
E|-9---7-7--5-5--2/-|

Verse
------------------
Guitar 1 (distorted):
e|---------------------------------------------------|
B|---------------------------------------------------|
G|---------------------------------------------------|
D|---------------------------------------------------|
A|---------------------------------------------------|
E|---------------------------------------------------|

Guitar 2 (CLEAN):
e|------------------|
B|------------------|
G|------------------| x8
D|-11--9-9--7-7--4/-|
A|-11--9-9--7-7--4/-|
E|-9---7-7--5-5--2/-|

CHORUS
------------------
Guitar 1 (distorted):
e|------------------------------------------------------------|
B|------------------------------------------------------------| This
G|-------------------------------------------99999999-11(x16)-| overlaps
D|---------44444444---------77777777---------99999999-11(x16)-| guitar 2
A|---------44444444---------77777777---------77777777-9 (x16)-|
E|---------22222222---------55555555--------------------------|

Guitar 2 (distorted):
e|------------------------------------------------------------|
B|------------------------------------------------------------|
G|-----------------------------------9999999999999999-11(x16)-|
D|-4444444444444444-7777777777777777-9999999999999999-11(x16)-|
A|-4444444444444444-7777777777777777-7777777777777777-9 (x16)-|
E|-2222222222222222-5555555555555555--------------------------|
The last power chord one is just like the others except it wouldnt all fit on sorry.

then...

Guitar 1 (distorted):
e|---------------------------------------------------------------------|
B|---------------------------------------------------------------------|
G|-----------------------------------9999999999999999-6666666666666666-|
D|-4444444444444444-7777777777777777-9999999999999999-6666666666666666-|
A|-4444444444444444-7777777777777777-7777777777777777-4444444444444444-|
E|-2222222222222222-5555555555555555-----------------------------------|

Guitar 2 (distorted):
e|---------------------------------------------------------------------|
B|---------------------------------------------------------------------|
G|-----------------------------------9999999999999999-6666666666666666-|
D|-4444444444444444-7777777777777777-9999999999999999-6666666666666666-|
A|-4444444444444444-7777777777777777-7777777777777777-4444444444444444-|
E|-2222222222222222-5555555555555555-----------------------------------|
They both play the same thing together there.

Solo
------------------
Guitar 1 (distorted):
e|------------------------------------------------------------------------|
B|---------------------------------Continued below------------------------|
G|------------------------------------------------------------------------|
D|------------------------------------------------------------------------|
A|-/16--12---14-14-14-14-14-14-12-----------------------12-14-12-14-12-14-|
E|--------------------------------14---1414141214-12-14-------------------|

Guitar 1 (continued):
e|----------------------------------------------|
B|----------------------------------------------|
G|--------------------14----14----14-16b(x4)\---|
D|---14----14---14-16----16----16---------------|
A|16----16---16---------------------------------|
E|----------------------------------------------|

Guitar 2 (CLEAN):
e|------------------|
B|------------------|
G|------------------| x4
D|-11--9-9--7-7--4/-|
A|-11--9-9--7-7--4/-| This overlaps the solo
E|-9---7-7--5-5--2/-|

Verse
------------------
Guitar 1 (distorted):
e|---------------------------------------------------|
B|---------------------------------------------------|
G|---------------------------------------------------|
D|---------------------------------------------------|
A|---------------------------------------------------|
E|---------------------------------------------------|

Guitar 2 (CLEAN):
e|------------------|
B|------------------|
G|------------------| x8
D|-11--9-9--7-7--4/-|
A|-11--9-9--7-7--4/-|
E|-9---7-7--5-5--2/-|

Chorus
------------------
Guitar 1 (distorted):
e|------------------------------------------------------------|
B|------------------------------------------------------------| This
G|-------------------------------------------99999999-11(x16)-| overlaps
D|---------44444444---------77777777---------99999999-11(x16)-| guitar 2
A|---------44444444---------77777777---------77777777-9 (x16)-|
E|---------22222222---------55555555--------------------------|

Guitar 2 (distorted):
e|------------------------------------------------------------|
B|------------------------------------------------------------|
G|-----------------------------------9999999999999999-11(x16)-|
D|-4444444444444444-7777777777777777-9999999999999999-11(x16)-|
A|-4444444444444444-7777777777777777-7777777777777777-9 (x16)-|
E|-2222222222222222-5555555555555555--------------------------|
The last power chord one is just like the others except it wouldnt all fit on sorry.

then...

Guitar 1 (distorted):
e|---------------------------------------------------------------------|
B|---------------------------------------------------------------------|
G|-----------------------------------9999999999999999-6666666666666666-|
D|-4444444444444444-7777777777777777-9999999999999999-6666666666666666-|
A|-4444444444444444-7777777777777777-7777777777777777-4444444444444444-|
E|-2222222222222222-5555555555555555-----------------------------------|

Guitar 2 (distorted):
e|---------------------------------------------------------------------|
B|---------------------------------------------------------------------|
G|-----------------------------------9999999999999999-6666666666666666-|
D|-4444444444444444-7777777777777777-9999999999999999-6666666666666666-|
A|-4444444444444444-7777777777777777-7777777777777777-4444444444444444-|
E|-2222222222222222-5555555555555555-----------------------------------|
They both play the same thing together there.

then...

Guitars 1 & 2 (distorted):
e|-------------------------------------------|
B|-------------------------------------------|
G|------------------9999999999999999-11(x16)-|
D|-7777777777777777-9999999999999999-11(x16)-|
A|-7777777777777777-7777777777777777-9 (x16)-|
E|-5555555555555555--------------------------|

Guitars 1 & 2 (distorted):
e|-----------------------------------|
B|-----------------------------------|
G|------------------9999999999999999-|
D|-7777777777777777-9999999999999999-|
A|-7777777777777777-7777777777777777-|
E|-5555555555555555------------------|

Guitar 1 (distorted):
e|-------------------------------------------------|
B|-------------------------------------------------|
G|-------------------------------------------------|
D|-4-xxx-4-xxx-4-xxx-4-xxx-4-xxx-4-xxx-4-xxx-4-xxx-|
A|-4-xxx-4-xxx-4-xxx-4-xxx-4-xxx-4-xxx-4-xxx-4-xxx-|
E|-2-xxx-2-xxx-2-xxx-2-xxx-2-xxx-2-xxx-2-xxx-2-xxx-|

Guitar 2 (distorted):
e|-------------------------------------------------|
B|-------------------------------------------------| This overlaps
G|-------------------------------------------------| guitar 1
D|-4-----4-----4-----4-----4-----4-----4-----4-----|
A|-4-----4-----4-----4-----4-----4-----4-----4-----|
E|-2-----2-----2-----2-----2-----2-----2-----2-----|

Guitar 1 (distorted):
e|-------------------------------------------------|
B|-------------------------------------------------|
G|-------------------------------------------------|
D|-4--x--4--x--4--x--4--x--4--x--4--x--4----222-4--|
A|-4--x--4--x--4--x--4--x--4--x--4--x--4----222-4--|
E|-2--x--2--x--2--x--2--x--2--x--2--x--2----000-2--|

Guitar 2 (distorted):
e|-------------------------------------------------|
B|-------------------------------------------------| This overlaps
G|-------------------------------------------------| guitar 1
D|-4~----4~----4~----4~----4~----4~----4~---222-4--|
A|-4~----4~----4~----4~----4~----4~----4~---222-4--|
E|-2~----2~----2~----2~----2~----2~----2~---000-2--|

break - "WELL I BET THAT YOU LOOK GOOD ON THE DANCEFLOOR!"

Guitars 1 & 2 (distorted):
e|-------------------------------------------|
B|-------------------------------------------|
G|------------------9999999999999999-11(x16)-|
D|-7777777777777777-9999999999999999-11(x16)-|
A|-7777777777777777-7777777777777777-9 (x16)-|
E|-5555555555555555--------------------------|

Guitars 1 & 2 (distorted):
e|-------------------------------------------------------------------------|
B|-------------------------------------------------------------------------|
G|-----------------------------------9999999999999999-666666666-6-6-6-6----|
D|-4444444444444444-7777777777777777-9999999999999999-666666666-6-6-6-6--4~|
A|-4444444444444444-7777777777777777-7777777777777777-444444444-4-4-4-4--4~|
E|-2222222222222222-5555555555555555-------------------------------------2~|

END

This is my first tab, I am pretty sure it is 100% correct as I listened to the record
while tabbing it. Please rate it nicely thank you.
Any comments please email me on andypandyhind@hotmail.com thank you.
Tunning: Standard (E A D G B e)
My Favourite band (next to The Fratellis).
Such a great song to play - SO FUN!
Hope you enjoy!

Tabber: Aled Parry.
Email: jonezi44@yahoo.co.uk.

Artist: The Arctic Monkeys.
Track: I Bet That You Look Good On The Dancefloor.
Track Number: 2.
Album: Whatever People Say I Am, That's What I'm Not.

----------------------------------------------------------------------------

Tuning: Standard E (Both Guitars)
---------------------------------

LEAD GUITAR (Guitar 1)
---------------------

Intro: (Distorted)
|------------------|
|------------------|
|------------------|
|-444-x-xx444-xxxx-| x3
|-444-x-xx444-xxxx-|
|-222-x-xx222-xxxx-|

|-----------------------------------|
|-----------------------------------|
|-----------------------------------|
|-1616161616161616\1414141414141414-|
|-1616161616161616\1414141414141414-|
|-1414141414141414\1212121212121212-|

|---------------------------------------------------------|
|---------------------------------------------------------|
|-------------------------------------9-9-9-9-11-11-11-11-|
|---------7-7-7-7-9-9-9-9-11-11-11-11---------------------|
|-9-9-9-9-------------------------------------------------|
|---------------------------------------------------------|

|--------------------------------------------------------|
|--------------------------------------------------------|
|-14-14-14-14-16-16-16-16-16b-16b-16b-16b-16b-16b-16b-16b|
|--------------------------------------------------------|
|--------------------------------------------------------|
|--------------------------------------------------------|

|--------------------------------------------------|
|--------------------------------------------------|
|-16-14----------14--16-14---------—14-16b~~~~r16--|
|-------16-14-16-----------16-14-16----------------|
|--------------------------------------------------|
|--------------------------------------------------|

|---------------------------------------------------------------|
|---------------------------------------------------------------|
|-16-16-16-16-14----------14------------------------------------|
|----------------16-14-16----16---16-16-16-16-14----------14----|
|------------------------------------------------16-14-16----16-|
|---------------------------------------------------------------|

|---------------------------------------------------------|
|---------------------------------------------------------|
|---------------------------------------------------------|
|---------------------------------------------------------|
|-14-12-14-12----------12-14-12----------12-14b151515r14\-|
|-------------14-12-14----------14-12-14------------------|

Verse (Clean)
|----------------------------|
|----------------------------|
|----------------------------|
|-11-11-9--9-9-x--7--7--4-xx-| x7
|-11-11-9--9-9-x--7--7--4-xx-|
|-9--9--7--7-7-x--5--5--2-xx-|
Stop makin’ the eyes at me, I'll stop making the eyes at you.
What it is that surprises me is that I don't really want you to,
And your shoulders are frozen (as cold as the night)
Oh, but you're an explosion (but you're dynamite)
Your name isn't Rio, but I don't care for sand.

|----------------------------|
|----------------------------|
|----------------------------|
|-11-11-9--9-9-x--7--7--2-22-|
|-11-11-9--9-9-x--7--7--2-22-|
|-9--9--7--7-7-x--5--5--0-00-|
And lighting the fuse might result in a bang with a bang-go!

Chorus (Distorted)
|----------------------------------------------------------------------|
|----------------------------------------------------------------------|
|----------------------------------/9999999999999999/11111111111111111-|
|-4444444444444444/7777777777777777/9999999999999999/11111111111111111-|
|-4444444444444444/7777777777777777/7777777777777777/-9999999999999999-|
|-2222222222222222/5555555555555555------------------------------------|
I bet that you look good on the dance floor,
I don't know if you're looking for romance or what,
Don't know what you're looking for.

|---------------------------------------------------------------------|
|---------------------------------------------------------------------|
|----------------------------------/9999999999999999\6666666666666666-|
|-4444444444444444/7777777777777777/9999999999999999\6666666666666666-|
|-4444444444444444/7777777777777777/7777777777777777\4444444444444444-|
|-2222222222222222/5555555555555555-----------------------------------|
I said bet that you look good on the dance floor,
Dancing to electro-pop like a robot from nineteen eighty-four,
From nineteen eighty-four!

Solo (Distorted)
|------------------------------------------------------------------------|
|------------------------------------------------------------------------|
|------------------------------------------------------------------------|
|------------------------------------------------------------------------|
|-/16--12---14-14-14-14-14-14-12-----------------------12-14-12-14-12-14-|
|--------------------------------14---1414141214-12-14-------------------|

|----------------------------------------------------|
|----------------------------------------------------|
|---------------------14----14----14-16b181818r16\---|
|----14----14---14-16----16----16--------------------|
|-16----16---16--------------------------------------|
|----------------------------------------------------|

Verse (Clean)
|----------------------------|
|----------------------------|
|----------------------------|
|-11-11-9--9-9-x--7--7--4-xx-| x7
|-11-11-9--9-9-x--7--7--4-xx-|
|-9--9--7--7-7-x--5--5--2-xx-|
I wish you'd stop ignoring me because you're sending me to despair,
Without a sound yeah you're calling me and I don't think it's very fair
That your shoulders are frozen (as cold as the night)
Oh, but you're an explosion (You're dynamite)
Your name isn't Rio but I don't care for sand
|----------------------------|
|----------------------------|
|----------------------------|
|-11-11-9--9-9-x--7--7--2-22-|
|-11-11-9--9-9-x--7--7--2-22-|
|-9--9--7--7-7-x--5--5--0-00-|
And lighting the fuse might result in a bang with a bang-go
Chorus (Distorted)
|---------------------------------------------------------------------|
|---------------------------------------------------------------------|
|----------------------------------/9999999999999999/11111111111111111-|
|-4444444444444444/7777777777777777/9999999999999999/11111111111111111-|
|-4444444444444444/7777777777777777/7777777777777777/-9999999999999999-|
|-2222222222222222/5555555555555555------------------------------------|
I bet that you look good on the dance floor,
I don't know if you're looking for romance or what,
Don't know what you're looking for.

|---------------------------------------------------------------------|
|---------------------------------------------------------------------|
|----------------------------------/9999999999999999\6666666666666666-|
|-4444444444444444/7777777777777777/9999999999999999\6666666666666666-|
|-4444444444444444/7777777777777777/7777777777777777\4444444444444444-|
|-2222222222222222/5555555555555555-----------------------------------|
I said I bet that you look good on the dance floor,
Dancing to electro-pop like a robot from nineteen eighty-four,
From nineteen eighty-four!

Bridge (Distorted)
|-----------------------------------------------------|
|-----------------------------------------------------|
|-----------------/9999999999999999/11111111111111111-|
|-7777777777777777/9999999999999999/11111111111111111-|
|-7777777777777777/7777777777777777/-9999999999999999-|
|-5555555555555555------------------------------------|
Oh there ain't no love
No Montagues or Capulets

|-----------------------------------------------------|
|-----------------------------------------------------|
|-11111111111111111\----------------/9999999999999999-|
|-11111111111111111\7777777777777777/9999999999999999-|
|--9999999999999999\7777777777777777/7777777777777777-|
|-------------------5555555555555555------------------|
We're just banging tunes and DJ sets and
Dirty dance floors and dreams of naughtiness

Break (Distorted)
|------------------|
|------------------|
|------------------|
|-444-x-xx444-xxxx-| x4
|-444-x-xx444-xxxx-|
|-222-x-xx222-xxxx-|

|--------------------------------|
|--------------------------------|
|--------------------------------|
|-/16-16-16161616\12-12-12121212-| x3
|-/16-16-16161616\12-12-12121212-|
|-/14-14-14141414\12-12-12121212-|

|--------------------------------------|
|--------------------------------------|
|--------------------------------------|
|-1616161616161616\1414141414141414/16-|
|-1616161616161616\1414141414141414/16-|
|-1414141414141414\1212121212121212/14-|


Chorus/Outro (Distorted)
|---------------------------------------------------------------------|
|---------------------------------------------------------------------|
|----------------------------------/9999999999999999/11111111111111111-|
|-----------------/7777777777777777/9999999999999999/11111111111111111-|
|-----------------/7777777777777777/7777777777777777/-9999999999999999-|
|-----------------/5555555555555555------------------------------------|
Well I bet that you look good on the dance floor
I don't know if you’re looking for romance or what
I know what you laughed at!

|---------------------------------------------------------------------|
|---------------------------------------------------------------------|
|----------------------------------/9999999999999999\6666666666666666-|
|-4444444444444444/7777777777777777/9999999999999999\6666666666666666-|
|-4444444444444444/7777777777777777/7777777777777777\4444444444444444-|
|-2222222222222222/5555555555555555-----------------------------------|
I said I bet that you look good on the dance floor,
Dancing to electro-pop like a robot from nineteen eighty-four,
From nineteen eighty-four!

----------------------------------------------------------------------------

RHYTHM GUITAR (guitar 2)
------------------------

Intro: (Distorted)
|------------------|
|------------------|
|------------------|
|-444-x-xx444-xxxx-| x4
|-444-x-xx444-xxxx-|
|-222-x-xx222-xxxx-|

|----------------------------------|
|----------------------------------|
|----------------------------------|
|-44444444444444444444444444444444-|
|-44444444444444444444444444444444-|
|-22222222222222222222222222222222-|

C#5 B5 A5 F#5
|----------------------------|
|----------------------------|
|----------------------------|
|-11-11-9--9-9-x--7--7--4-xx-| x4
|-11-11-9--9-9-x--7--7--4-xx-|
|-9--9--7--7-7-x--5--5--2-xx-|

Verse (Clean)
|----------------------------|
|----------------------------|
|----------------------------|
|-11-11-9--9-9-x--7--7--4-xx-| x7
|-11-11-9--9-9-x--7--7--4-xx-|
|-9--9--7--7-7-x--5--5--2-xx-|
Stop makin’ the eyes at me, I'll stop making the eyes at you.
What it is that surprises me is that I don't really want you to,
And your shoulders are frozen (as cold as the night)
Oh, but you're an explosion (but you're dynamite)
Your name isn't Rio, but I don't care for sand

|----------------------------|
|----------------------------|
|----------------------------|
|-11-11-9--9-9-x--7--7--2-22-|
|-11-11-9--9-9-x--7--7--2-22-|
|-9--9--7--7-7-x--5--5--0-00-|
And lighting the fuse might result in a bang with a bang-go!

Chorus (Distorted)
|---------------------------------------------------------------------|
|---------------------------------------------------------------------|
|---------------------------------------------------------------------|
|-4444444444444444/7777777777777777\2222222222222222/4444444444444444-|
|-4444444444444444/7777777777777777\2222222222222222/4444444444444444-|
|-2222222222222222/5555555555555555\0000000000000000/2222222222222222-|
I bet that you look good on the dance floor,
I don't know if you're looking for romance or what,
Don't know what you're looking for.

|---------------------------------------------------------------------|
|---------------------------------------------------------------------|
|---------------------------------------------------/6666666666666666-|
|-4444444444444444/7777777777777777\2222222222222222/6666666666666666-|
|-4444444444444444/7777777777777777\2222222222222222/4444444444444444-|
|-2222222222222222/5555555555555555\0000000000000000------------------|
I said bet that you look good on the dance floor,
Dancing to electro-pop like a robot from nineteen eighty-four,
From nineteen eighty-four!

Solo (Clean)
|----------------------------|
|----------------------------|
|----------------------------|
|-11-11-9--9-9-x--7--7--4-xx-| x4
|-11-11-9--9-9-x--7--7--4-xx-|
|-9--9--7--7-7-x--5--5--2-xx-|

Verse (Clean)
|----------------------------|
|----------------------------|
|----------------------------|
|-11-11-9--9-9-x--7--7--4-xx-| x7
|-11-11-9--9-9-x--7--7--4-xx-|
|-9--9--7--7-7-x--5--5--2-xx-|
I wish you'd stop ignoring me because you're sending me to despair,
Without a sound yeah you're calling me and I don't think it's very fair
That your shoulders are frozen (as cold as the night)
Oh, but you're an explosion (You're dynamite)
Your name isn't Rio but I don't care for sand

|----------------------------|
|----------------------------|
|----------------------------|
|-11-11-9--9-9-x--7--7--2-22-|
|-11-11-9--9-9-x--7--7--2-22-|
|-9--9--7--7-7-x--5--5--0-00-|
And lighting the fuse might result in a bang with a bang-go

Chorus (Distorted)
|---------------------------------------------------------------------|
|---------------------------------------------------------------------|
|---------------------------------------------------------------------|
|-4444444444444444/7777777777777777\2222222222222222/4444444444444444-|
|-4444444444444444/7777777777777777\2222222222222222/4444444444444444-|
|-2222222222222222/5555555555555555\0000000000000000/2222222222222222-|
I bet that you look good on the dance floor,
I don't know if you're looking for romance or what,
Don't know what you're looking for.

|---------------------------------------------------------------------|
|---------------------------------------------------------------------|
|---------------------------------------------------/6666666666666666-|
|-4444444444444444/7777777777777777\2222222222222222/6666666666666666-|
|-4444444444444444/7777777777777777\2222222222222222/4444444444444444-|
|-2222222222222222/5555555555555555\0000000000000000------------------|
I said I bet that you look good on the dance floor,
Dancing to electro-pop like a robot from nineteen eighty-four,
From nineteen eighty-four!

Bridge (Distorted)
|-----------------------------------------------------|
|-----------------------------------------------------|
|-----------------/9999999999999999/11111111111111111-|
|-7777777777777777/9999999999999999/11111111111111111-|
|-7777777777777777/7777777777777777/-9999999999999999-|
|-5555555555555555------------------------------------|
Oh there ain't no love
No Montagues or Capulets

|-----------------------------------------------------|
|-----------------------------------------------------|
|-11111111111111111\----------------/9999999999999999-|
|-11111111111111111\7777777777777777/9999999999999999-|
|--9999999999999999\7777777777777777/7777777777777777-|
|-------------------5555555555555555------------------|
We're just banging tunes and DJ sets and
Dirty dance floors and dreams of naughtiness

Break (Distorted)
|------------------|
|------------------|
|------------------|
|-444-xxxx-444-xxx-| x4
|-444-xxxx-444-xxx-|
|-222-xxxx-222-xxx-|

|-----------|
|-----------|
|-----------|
|-4444-xxxx-| x8
|-4444-xxxx-|
|-2222-xxxx-|

Chorus/Outro (Distorted)
|---------------------------------------------------------------------|
|---------------------------------------------------------------------|
|----------------------------------/9999999999999999/11111111111111111-|
|-----------------/7777777777777777/9999999999999999/11111111111111111-|
|-----------------/7777777777777777/7777777777777777/-9999999999999999-|
|-----------------/5555555555555555------------------------------------|
Well I bet that you look good on the dance floor
I don't know if you’re looking for romance or what
I know what you laughed at!

|---------------------------------------------------------------------|
|---------------------------------------------------------------------|
|----------------------------------/9999999999999999\6666666666666666-|
|-4444444444444444/7777777777777777/9999999999999999\6666666666666666-|
|-4444444444444444/7777777777777777/7777777777777777\4444444444444444-|
|-2222222222222222/5555555555555555-----------------------------------|
I said I bet that you look good on the dance floor,
Dancing to electro-pop like a robot from nineteen eighty-four,
From nineteen eighty-four!
Song info
I Bet You Look Good On The Dancefloor
Arctic Monkeys
2001
  • Rock
  • Indie Rock
Alternative tracks
Similar songs
Roll With It - Oasis
Live Forever - Oasis
Fake Tales Of San Francisco - Arctic Monkeys
Last Junkie On Earth - The Dandy Warhols

Hi! Hope you enjoy backing track experience.
If you want to help us in the development of the project, feel free to donate!