00:00 / 00:00
Tabs and lyrics
Tunning: Standard (E A D G B e)
"/" TEMPORARY 8th note
(hopefully help guide through the chords)

CHORDS


Em7 A Adim A6*
EADGBe EADGBe EADGBe EADGBe
x79787 577655 xx5656 57x675

*Threw these in
if you want to
Fm7 Bb add a bit more Bb6*
dynamic, flavor or stylee
EADGBe EADGBe to the tune EADGBe
x8a898 688766 68x786
a=10 b=11


[Chorus]

A6* (sometimes i'll mess around with the 9th string, high 'e' string on the 8th fret.)

|Em7 / / / / |A / / / / |Em7 / / / / |A or A6* / / / /


In the cool of the evening
When everything is gettin' kind of groovy
I call you up and ask you if you
Would you like to go with me and see a movie


|Em7 / / / / ~ / / / /
First you say no, you've got some plans for the night

|A / / / / |Adim / / (strum about 'twice' to the "all right")

And then you stop, and say, all right
Love is kinda crazy with a spooky little girl like you

You always keep me guessin'
I never seem to know what you are thinkin'
And if a fella looks at you
It's for sure your little eye will be a-winkin'
I get confused, cause I don't know where I stand
And then you smile, and hold my hand
Love is kinda crazy with a spooky little girl like you
Spooky

Key change (half step up...)

|Fm7 / / / / |Bb / / / / |Fm7 / / / / |Bb / / / / Bb |or Bb6*


[Solo 1]

e|-------------------------------------------------------------------------|
B|-------------------------------------------------------------------------|
G|-------------------------------------------------------------------------|
D|----12---13---13-13--------------------------------------------12h13p12--|
A|/15----15--15------15-13\-11----11-13r-13r-13r-11----------11~-----------|
E|-----------------------------13-------------------13-11-13~--------------|

e|-------------------------------------------------------------------------|
B|---15----16----16--16----------------------------------------------------|
G|17----17----17--------17-13h15p13----15r-15r-15r-13~----------13~--------|
D|----------------------------------15-----------------15-13-15------------|
A|-------------------------------------------------------------------------|
E|-------------------------------------------------------------------------|

e|-------------------------------------------------------------------------|
B|------------------------------------------------------18-16--------------|
G|17p15----15-15/17\----13-1515b-(17)-b15p13------13---------15/17\15-13-|
D|------18---------18-15----------------------15-15---15------------------|
A|-------------------------------------------------------------------------|
E|-------------------------------------------------------------------------|

e|-----------------------------------------------------------------------|
B|-----------------------------------------------------------------------|
G|-----------------------------------------------------------------------|
D|15-13------15-15--18p15-17p15--17/18-17/18-15----15--------------------|
A|-------/17------------------------------------17----17\----------------|
E|-----------------------------------------------------------------------|

e|13------------------------------------------------------------------13\|
B|13-16-13------------------------------------------------12~13----------|
G|---15-13-13-13------------------------13h15--13h15---15----------------|
D|---------15-13-13-13-13-15p13-13h15----13-----13-----13----------------|
A|---------------15-14-13-13----13---------------------------------------|
E|-----------------------------------------------------------------------|
Fm7 Bb

If you decide someday to stop this little game that you are playin
I'm gonna tell you all what my heart's been a-dyin to be sayin
Just like a ghost, you've been a-hauntin my dreams
So I'll propose on Halloween
Love is kinda crazy with a spooky little girl like you
...



AppleScruffs

Still could use some help on the rest of the solo's...
This is the first TAB i ever wrote when i first started playing,
so leave some comments or your email if your interested in helping.

Thanks do jdd55 for the chord recommendation i think it sounds nice. That being
said give some other chords a try during the hangover in the song


************************************

| ~ TRILL
|( ) GHOST NOTE
| x PALM NOTE
| / SLIDE UP
| \ SLIDE DOWN
| % EIGHTH REST
| h HAMMER on
| P PULL off
| T USE THUMB
| B BEND FULL STEP
| r BEND FULL STEP then return
| b BEND 1/2 STEP

************************************
Tunning: Standard (E A D G B e)
Tabbed by: TheRollingStones
Email: snboarder592@hotmail.com

Tuning: EADGBe

[Intro]
e|------|--------------------| x3
B|------|--------------------|
G|------|--------------------|
D|------|--------------------|
A|-0-1-2|--------------0-1-2-|
E|------|--------------------|

e|--------------------|---------------------|
B|-7---7---7---7----7-|-7---7---7---7----7\-|
G|-7---7---7---7----7-|-7---7---7---7----7\-|
D|--------------------|---------------------|
A|--------------------|---------------------|
E|--------------------|---------------------|

[Verse]
E7 A13 x6 E7 A13
e|-------------------------|--------------------------------------------|
B|-----8-x-8-8\---7-7--7~--|-----7-x-7-7--x-7-7--7--7---7-----8--8~-----|
G|-----7-x-7-7\---6-6--6~--|-----7-x-8-8--x-8-8--8--8---6-----6--6~-----|
D|-----9-x-9-9\---5-5--5~--|-----9-x-9-9--x-9-9--9--9---5-----7--7~-----|
A|--7------7-7\------------|--7------7-7--x-7-7--7--7-------------------|
E|-------------------------|--------------------------------------------|
E7 A13 E7 Bm7 Cm7
e|-------------------------------------------7-7-7-7-7|-8--8--8--8--8--|
B|-----8-x-8-8\---7-7--7~-----8-x-8-8--8-----7-7-7-7-7|-8--8--8--8--8--|
G|-----7-x-7-7\---6-6--6~-----7-x-7-7--7-----7-7-7-7-7|-8--8--8--8--8--|
D|-----9-x-9-9\---5-5--5~-----9-x-9-9--9-----7-7-7-7-7|-8--8--8--8--8--|
A|--7------7-7\------------7----x-7-7--7--9--9-9-9-9-9|-10-10-10-10-10-|
E|----------------------------------------7--7-7-7-7-7|-8--8--8--8--8--|

(Repeat verse once, 2nd time add the five extra hits of the Cm7, and then the solos just
the same progressions up half a step. Have fun with the solos =) it's a great jazz jam tune)


************************************

| \ Slide down
| x Dead note
| ~ Vibrato

************************************
Song info
Spooky
Atlanta Rhythm Section
2001
  • Rock
  • Soft Rock
Alternative tracks
Similar songs
Ride Like The Wind - Christopher Cross
Its so Easy - Linda Ronstadt
Streets of Philadelphia - Bruce Springsteen
Im Yours - Jason Mraz
Sign Of The Times - Harry Styles

Hi! Hope you enjoy backing track experience.
If you want to help us in the development of the project, feel free to donate!