Bat Country - Avenged Sevenfold
00:00 / 00:00
Tabs and lyrics
Tunning: Standard (E A D G B e)
-------------------------------------------------------------------------------
Bat Country - Avenged Sevenfold
-------------------------------------------------------------------------------

...This is my first, well...SECOND tab I've submitted...(first one got rejected =/)
This is off A7X's new album, City of Evil, and it's called Bat Country.

Tuning: Drop D (D A D G B E)

* - The time indicates exactly when the riff begins...They are there to be used as a
reference point so that nobody gets lost. (For all you n00bs...no offense.)


[Riff A]
(Intro)

"He who makes a beast out of himself..." (00:00)

e|---------------------------------------------|
B|---------------------------------------------|
G|--7-7----7-7---------------------------------|
D|--7-7----7-7-6-6--0---0-0-0------------------|
A|--5-5----5-5-6-6--0---0-0-0------------------|
E|-------------6-6--0---0-0-0-5p3p0-5p3p0-0----|(x4)

(First two times, a "phaser" effect is used...)

[Riff B]
(Pre-Verse)

"Caught here in a fiery blaze..." (00:15)

e|-------------------|------------------|
B|-------------------|------------------|
G|----7~-------------|---7~-------------|
D|----7~-6~-5~-3~----|---7~-6~-5~-3~----|
A|----5~-6~-5~-3~----|---5~-6~-5~-3~----|
E|-------6~-5~-3~----|------6~-5~-3~----|

[Riff C]
(Verse 1)

"I trie-ie-ied to drive all through the night..." (00:23)

e|-------------------------------------|--------------------------------------|
B|-------------------------------------|--------------------------------------|
G|-------------------------------------|--------------------------------------|
D|-------------------------------------|--------------------------------------|
A|--55555555---------------------------|-55555555-----------------------------|
E|----------66666666-00000000000000000-|---------66666666-0000000000000000----|
................. ................

"No oasis here to see, the sand is singing deathless words to me..." (00:30)

e|-------------------------------------|--------------------------------------|
B|-------------------------------------|--------------------------------------|
G|-------------------------------------|--------------------------------------|
D|-------------------------------------|--------------------------------------|
A|--55555555-----------------444444444-|-55555555-77777777--------------------|
E|----------66666666-55555555----------|------------------33333333-22222222---|

[Riff D]
(Chorus)

"Can't you help me as I'm starting to burn?..." (00:38)

e|----------------------------------------------------------------|
B|----------------------------------------------------------------|
G|--7--7--7-7---------------------5--5--5--5----------5-----------|
D|--7--7--7-7-0-0--5-5-0-3~---0-0-5--5--5--5-0--3-3-0-5-----------|
A|--5--5--5-5-0-0--5-5-0-3~---0-0-3--3--3--3-0--3-3-0-3-5--7-7h8--|
E|------------0-0--5-5-0-3~---0-0------------0--3-3-0-------------|(x2)
. . . . . . .

[Riff E] (Verse 2) [2x]

"As Ie-ie-ie adjust to my new sights..."

(00:53)

e|-------------------------------------|--------------------------------------|
B|-------------------------------------|--------------------------------------|
G|-------------------------------------|--------------------------------------|
D|-------------------------------------|--------------------------------------|
A|--55555555---------------------------|-55555555-----------------------------|
E|----------66666666-00000000000000000-|---------66666666-0000000000000000----|
................. ................

"Mental fiction follows me; Show me what it's like to be set free..." (01:09)

e|-------------------------------------|--------------------------------------|
B|-------------------------------------|--------------------------------------|
G|-------------------------------------|--------------------------------------|
D|-------------------------------------|--------------------------------------|
A|--55555555-----------------444444444-|-55555555-77777777--------------------|
E|----------66666666-55555555----------|------------------33333333-22222222---|

[Riff F]
(Chorus...again)

"Can't you help me as I'm starting to burn?..." (01:17)

e|----------------------------------------------------------------|
B|----------------------------------------------------------------|
G|--7--7--7-7---------------------5--5--5--5----------5-----------|
D|--7--7--7-7-0-0--5-5-0-3~---0-0-5--5--5--5-0--3-3-0-5-----------|
A|--5--5--5-5-0-0--5-5-0-3~---0-0-3--3--3--3-0--3-3-0-3-5--7-7h8--|
E|------------0-0--5-5-0-3~---0-0------------0--3-3-0-------------|(x2)
. . . . . . .

[Riff G] (Clean Part)

"So sorry you're not here..." (01:32)

e|---------------------------------------------------------------------------|
B|---------------------------------------------------------------------------|
G|---------------------------------------------------------------------------|
D|---T_T---Sorry-fellas...Haven't-figured-out-THIS-part-yet-:(---------------|
A|---------------------------------------------------------------------------|
E|---------------------------------------------------------------------------|

[Riff H]
(Extended Pre-Verse)

"Caught here in a fiery blaze..." (02:02)

e|-------------------|------------------|
B|-------------------|------------------|
G|----7~-------------|---7~-------------|
D|----7~-6~-5~-3~----|---7~-6~-5~-3~----|
A|----5~-6~-5~-3~----|---5~-6~-5~-3~----|
E|-------6~-5~-3~----|------6~-5~-3~----|

(Solo Begins here) (02:18)

e|-------------------|------------------|
B|-------------------|------------------|
G|----7~-------------|---7~-------------|
D|----7~-6~-5~-0x----|---7~-6~-5~-0x----|
A|----5~-6~-5~-0x----|---5~-6~-5~-0x----|
E|-------6~-5~-0x----|------6~-5~-0x----|

[Riff 1]
(While the solo gets CRAZIER...)
(02:26)
e|---------------------------------------|
B|---------------------------------------|
G|---------------------------------------|
D|---------------------------------------|
A|--55555555-----------------------------|
E|----------66666666-00000000-0h3h4/6666-|(x4)
........

[Riff J]
(The solo is at its CRAZIEST...)
(02:41)
e|-------------------------------------|----------------------------------------|
B|-------------------------------------|----------------------------------------|
G|-------------------------------------|----------------------------------------|
D|-------------------------------------|------------------------------------0x--|
A|--55555555-----------------444444444-|-55555555-77777777------------------0x--|
E|----------66666666-55555555----------|------------------33333333-22222222-0x--|

[Riff K]
(Solo continues...) [2x]

(2:53)

e|---------------------------------------------------------------------------|
B|---------------------------------------------------------------------------|
G|------------------------------5-5-5-5-5~-----------------------------------|
D|-0-0-0-0-0~----5-5-5-5-5~-----5-5-5-5-5~----2-2-2-2-2~-2-2-2-2-2~----------|
A|-0-0-0-0-0~----5-5-5-5-5~-----3-3-3-3-3~----0-0-0-0-0~-4-4-4-4-4~----------|
E|-0-0-0-0-0~----5-5-5-5-5~--------------------------------------------------|
. . . . . . . . . . . . . . . . . . . .

[Riff L]
(Solo's about to end...I think...=\)
(03:08)

e|------------------------|-----------------------|
B|------------------------|-----------------------|
G|------------------------|-----------------------|
D|--0~-5-3-2~---5~-9-7-5--|-Haven't-figured-this--|
A|--0~-3-1-0~---5~-7-5-3--|---Out-either...=\-----|
E|--0~----------5~--------|-----------------------|
. . . .

[Riff M]
(Slightly Modified Verse)

"Sometimes I don't know why...We'd rather live than die..." (03:16)

e|-------------------------------------|--------------------------------------|
B|-------------------------------------|--------------------------------------|
G|-------------------------------------|--------------------------------------|
D|-------------------------------------|--------------------------------------|
A|--55555555---------------------------|-55555555-----------------------------|
E|----------66666666-00000000000000000-|---------66666666-0000000000000000----|
................. ................

e|-------------------------------------|--------------------------------------------------|
B|-------------------------------------|--------------------------------------------------|
G|-------------------------------------|--------------------------------------------------|
D|-------------------------------------|--------------------------------------------------|
A|--55555555---------------------------|-55555555-----------------------------------------|
E|----------66666666-00000000000000000-|---------66666666-0000000000000000000000000000000-|
................. (PM'd...all of it)
[Play really fast,
to the sound of the
snare drum...]

[Riff N]
(...Some random, yet cool, riff)

"I'll make a beast out of myself..." (03:30)

e|----------------------------------------------------------|
B|----------------------------------------------------------|
G|---------------------555555555555555----------------------|
D|-0-2-33333333333333--555555555555555-555555555555555-0~---|
A|-0-2-33333333333333--333333333333333-555555555555555-0~---|
E|-0-2-33333333333333------------------555555555555555-0~---|
(Listen for strumming)
(03:37)
e|------------------------------------------------------------------------------------------------|
B|------------------------------------------------------------------------------------------------|
G|-----------------------------555555555555555-33333333333333333333333333-------------------------|
D|---------0-2-333333333333333-555555555555555-33333333333333333333333333-22222222222-22222222222-|
A|---------0-2-333333333333333-333333333333333-11111111111111111111111111-00000000000-44444444444-|
E|-000000000-2-333333333333333--------------------------------------------------------------------|
........
(Snare drum
again...)

[Riff O]
(Chorus...again)

"Can't you help me as I'm starting to burn?..." (03:50)

e|----------------------------------------------------------------|(x2)
B|----------------------------------------------------------------|
G|--7--7--7-7---------------------5--5--5--5----------5-----------|
D|--7--7--7-7-0-0--5-5-0-3~---0-0-5--5--5--5-0--3-3-0-5-----------|
A|--5--5--5-5-0-0--5-5-0-3~---0-0-3--3--3--3-0--3-3-0-3-5--7-7h8--|
E|------------0-0--5-5-0-3~---0-0------------0--3-3-0-------------|
. . . . . . .

Riff P (Clean Part and Outro)

"So sorry you're not here..." (04:06)


Well that's it...I think it's 99% accurate and it's very well written...er, typed...
Please support the band by buying their new album...
Have fun!...Oh, and here are the lyrics...just for the hell of it...



************************************

| p Pull-off
| ~ Vibrato
| h Hammer-on
| . Staccato
| x Dead note
| / Slide up
| PM Palm mute

************************************
Tunning: Drop D (D A D G B E)
Bat Country

Artist: Avenged Sevenfold
Album: City of Evil

Tuning: (dropped D)
Guitar 1: EBGDAD
Guitar 2: EBGDAD
b-bend
s-slide

intro (with phaser effect)
E|---------------------------------| x4
B|---------------------------------|
G|-7-7-----------------------------|
D|-7-7—-6-6------------------------|
A|-5-5—-6-6------------------------|
D|------6-6—-0-0-0-0-5p3p0-5p3p0-0-|

E|-------------| x2
B|-------------|
G|-7-----------|
D|-7—-6—-5—-3--|
A|-5—-6—-5—-3--|
D|----6—-5—-3--|

E|------------------------------|x2
B|------------------------------|
G|------------------------------|
D|------------------------------|
A|-555555555--------------------|
D|----------66666666-0000000000-|

E|-----------------------------------| E|--------------------------|
B|-----------------------------------| B|--------------------------|
G|-----------------------------------| G|--------------------------|
D|-----------------------------------| D|--------------------------|
A|-55555555-----------------44444444-| A|-55555555-777777----------|
D|---------66666666-55555555---------| D|----------------3333-2222-|

E|--------------------------------------------------| x2
B|--------------------------------------------------|
G|-7-7-77-----------------55555555--------5~--------|
D|-7-7-55-00-55-0-3~-0-0—-55555555-0-33-0-5~--------|
A|-5-5-55-00-55-0-3~-0-0—-33333333-0-33-0-3~-s5-7-8-|
D|--------00-55-0-3~-0-0-----------0-33-0-----------|

E|------------------------------|x4
B|------------------------------|
G|------------------------------|
D|------------------------------|
A|-555555555--------------------|
D|----------66666666-0000000000-|

E|-----------------------------------| E|--------------------------|
B|-----------------------------------| B|--------------------------|
G|-----------------------------------| G|--------------------------|
D|-----------------------------------| D|--------------------------|
A|-55555555-----------------44444444-| A|-55555555-777777----------|
D|---------66666666-55555555---------| D|----------------3333-2222-|

E|--------------------------------------------------| x2
B|--------------------------------------------------|
G|-7-7-77-----------------55555555--------5~--------|
D|-7-7-55-00-55-0-3~-0-0—-55555555-0-33-0-5~--------|
A|-5-5-55-00-55-0-3~-0-0—-33333333-0-33-0-3~-s5-7-8-|
D|--------00-55-0-3~-0-0-----------0-33-0-----------|

Clean Riff:

E|----------------------------------------------------------------|
B|------6-----------------5---------------------------------------|
G|----7--7-7-----7------5--5-5----4--------9--------7--------5----|
D|---7-7--7----5--5-5--5-5--5---2--2-2---7--7-7---5--5-5---3--3-3-|
A|--5---------5-5--5--3--------2-2--2---7-7--7---5-5--5---3-3--3--|
D|-----------5----------------2--------7--------5--------3--------|

Before the Solo:

E|-------------| x2
B|-------------|
G|-7-----------|
D|-7—-6—-5—-3--|
A|-5—-6—-5—-3--|
D|----6—-5—-3--|

Solo:

E|-8(10)------------------8h10--8(10)--------|
B|------9~-8~---------8h10-----------9~-8~---|
G|------------7-7h8h10-----------------------|
D|-------------------------------------------|
A|-------------------------------------------|
D|-----------------------------------------0-|

E|------------------------------------------------------------------8(10)-10h8----10(12)10-|
B|------------------------------------------------------------10(12)----------10h9---------|
G|-----------------8(10)----------------10(12)---------------------------------------------|
D|-10(12)~(12)~(12)-----10(12)~(12)~(12)------10(12)~(12)~(12)-----------------------------|
A|-----------------------------------------------------------------------------------------|
D|-----------------------------------------------------------------------------------------|

E|-8-10-13(15)-18-17-16-15-13-15-15(17)-18-17-15-------------------------------15(16)-|
B|-------------------------------------------------------13131313-15(17)15---13-------|
G|-----------------------------------------------13131313------------------13---------|
D|------------------------------------------------------------------------------------|
A|------------------------------------------------------------------------------------|
D|------------------------------------------------------------------------------------|


E|------------------------------------17181716171817161718171617---|
B|-15-------18-------17-------20--------------------------------17-|
G|-----------------------------------------------------------------|
D|---121212---151515---141414---171717-----------------------------|
A|-----------------------------------------------------------------|
D|-----------------------------------------------------------------|

E|-10131210131210131210-12151412151412151412-15181715181715181715-|
B|----------------------------------------------------------------|
G|----------------------------------------------------------------|
D|----------------------------------------------------------------|
A|----------------------------------------------------------------|
D|----------------------------------------------------------------|

E|-17201917201917-19222019222019-20(22)-|
B|--------------------------------------|
G|--------------------------------------|
D|--------------------------------------|
A|--------------------------------------|
D|--------------------------------------|

The beginning of the duet will come soon.

This is the outro of the solo, where Zacky and Syn play the duet together.

E|----------------s20-18b--17-18-17----------------s18-17----------17s13-13-|
B|-s18b--15-17-18------------------18-20b—17-18-17--------17-18-20----------|
G|--------------------------------------------------------------------------|
D|--------------------------------------------------------------------------|
A|--------------------------------------------------------------------------|
D|--------------------------------------------------------------------------|

E|----------s20-18b—17-18-17-----------------s18-17-----------17s13—13--18s15--15-|
B|-15-17-18------------------18-20b—17-18-17--------17-18-20----—-----------------|
G|--------------------------------------------------------------------------------|
D|--------------------------------------------------------------------------------|
A|--------------------------------------------------------------------------------|
D|--------------------------------------------------------------------------------|

I'm still tryin to figure out the rest of the solo. Sorry bout that.


E|-------------------------------------| x4
B|-------------------------------------|
G|-------------------------------------|
D|-------------------------------------|
A|--55555555---------------------------|
D|-----------66666666-0000000000000000-|
................
E|--------------------------------------------------------------------------|
B|--------------------------------------------------------------------------|
G|--------------------------------------------------------------------------|
D|--------------------------------------------------------------------------|
A|--55555555-------------------44444444-55555555-77777777-------------------|
D|-----------66666666-55555555----------------------------33333333-22222222-|

E|----------------------------------------------------------------| x2
B|----------------------------------------------------------------|
G|-----------------------5-5-5-5-5-5-5----------------------------|
D|--0-2--3-3-3-3-3-3-3-3-5-5-5-5-5-5-5-5-5-5-5-5-5-5-5-0----------|
A|--0-2--3-3-3-3-3-3-3-3-3-3-3-3-3-3-3-5-5-5-5-5-5-5-5-0----------|
D|--0-2--3-3-3-3-3-3-3-3---------------5-5-5-5-5-5-5-5-0-0000-----|
....
Chorus

E|--------------------------------|
B|--------------------------------|
G|--------------------------------|
D|--7-7-77-------5-5-----55-0-23--|
A|--5-5-55-555-3-3-3-333-33-------|
D|---------555-3-----333----------|

Clean Riff

E|----------------------------------------------------------------|
B|------6-----------------5---------------------------------------|
G|----7--7-7-----7------5--5-5----4--------9--------7--------5----|
D|---7-7--7----5--5-5--5-5--5---2--2-2---7--7-7---5--5-5---3--3-3-|
A|--5---------5-5--5--3--------2-2--2---7-7--7---5-5--5---3-3--3--|
D|-----------5----------------2--------7--------5--------3--------|

E|-----------------------------------------------------------------|
B|-----------------------------------------------------------------|
G|--7-7-7-7-7-7-7-7-5-5-5-5-4-4-4-4--9-9-9-9-7-7-7-7-5-5-5-5-5-5-5-|
D|--7-7-7-7-5-5-5-5-5-5-5-5-2-2-2-2--7-7-7-7-5-5-5-5-5-3-3-3-3-3-3-|
A|--5-5-5-5-5-5-5-5-3-3-3-3-2-2-2-2--7-7-7-7-5-5-5-5-3-3-3-3-3-3-3-|
D|-----------------------------------------------------------------|



IF you have any questions or comments my e-mail is dgpimp5005@yahoo.com
Thanks and have fun! A7X for life!
Tunning: Standard (E A D G B e)
BAT COUNTRY
As recorded by Avenged Sevenfold
(From the 2005 Album CITY OF EVIL)

Transcribed by Mooney


Words by Shadows Music by A7x
Arranged by A7x

Gtr I (D A D G B E) - 'Zacky Guitar 1 '
Gtr II (D A D G B E) - 'Synyster Guitar 2'
Gtr III (D A D G B E) - 'Zacky Neutral'
Gtr IV (D A D G B E) - 'Synyster Neutral'
Gtr V (E A D G B E) - 'Zacky Guitar 2 (Acoustic)'
Gtr VI (D A D G B E) - 'Synyster Guitar 2 (Clean)'


[Intro]
Q=125
4/4
Gtrs I, II
E Q S S E Q E +E Q E S S S S S S E
E||------------------|-------------------------||
B||o-----------------|------------------------o||
G||------------------|-------------------------||
D||--7-7--7-7--------|-------------------------||
A||o-5-5--5-5-6-6--0-|-(0)-0--0---------------o||
D||-----------6-6--0-|-(0)-0--0-5p3h5-6p5p3-0--||


E Q S S E Q E +E Q E S S S S S S E
E||------------------|-------------------------||
B||o-----------------|------------------------o||
G||--7-7--7-7--------|-------------------------||
D||--7-7--7-7-6-6--0-|-(0)-0--0----------------||
A||o-5-5--5-5-6-6--0-|-(0)-0--0---------------o||
D||-----------6-6--0-|-(0)-0--0-5p3h5-6p5p3-0--||


[Pre-Verse]
Q. H E +Q. H +E
E||--------------|-----------------||
B||o-------------|----------------o||
G||--7-----------|-----------------||
D||--7----6----5-|-(5)---3----(3)--||
A||o-5----6----5-|-(5)---3----(3)-o||
D||-------6----5-|-(5)---3----(3)--||


[Verse]
PM----------------------------|
S S S S S S S S S S S S S S S S S S S S S S S S S S S S S S S S
||----------------------------------|-----------------------------------||
||o---------------------------------|----------------------------------o||
||----------------------------------|-----------------------------------||
||----------------------------------|-----------------------------------||
||o-5-5-5-5-5-5-5-5-----------------|-0-0-0-0-0-0-0-0-0-0-0-0-0-0-0-0--o||
||------------------6-6-6-6-6-6-6-6-|-0-0-0-0-0-0-0-0-0-0-0-0-0-0-0-0---||


[Pre-Chorus]
$
S S S S S S S S S S S S S S S S S S S S S S S S S S S S S S S S
E|---------------------------------|---------------------------------|
B|---------------------------------|---------------------------------|
G|---------------------------------|---------------------------------|
D|---------------------------------|---------------------------------|
A|-5-5-5-5-5-5-5-5-----------------|-----------------4-4-4-4-4-4-4-4-|
D|-----------------6-6-6-6-6-6-6-6-|-5-5-5-5-5-5-5-5-----------------|


S S S S S S S S S S S S S S S S S S S S S S S S S S S S S S S S
E|---------------------------------|---------------------------------|
B|---------------------------------|---------------------------------|
G|---------------------------------|---------------------------------|
D|---------------------------------|---------------------------------|
A|-5-5-5-5-5-5-5-5-7-7-7-7-7-7-7-7-|---------------------------------|
D|---------------------------------|-3-3-3-3-3-3-3-3-2-2-2-2-2-2-2-2-|


[Chorus]
To Coda
PM-| PM| PM PM
q q E E e e E E e Q E E e E E E E E E E E E E e E E a E E E
E||----------------|----------------|-----------------|--------------------||
B||o---------------|----------------|-----------------|-------------------o||
G||--7--7--7-7-----|----------------|-5-5-5-5-5-5-5-5-|-------5-5----------||
D||--7--7--7-7-----|-5-5---3--3-3---|-5-5-5-5-5-5-5-5-|-3-3---5-5----------||
A||o-5--5--5-5-0-0-|-5-5-0-3--3-3-0-|-3-3-3-3-3-3-3-3-|-3-3-0-3-3-0S5-7-8-o||
D||------------0-0-|-5-5-0-3--3-3-0-|-----------------|-3-3-0--------------||


[Verse]
D.S. al Coda
PM----------------------------|
S S S S S S S S S S S S S S S S S S S S S S S S S S S S S S S S 4x
||----------------------------------|-----------------------------------||
||o---------------------------------|----------------------------------o||
||----------------------------------|-----------------------------------||
||----------------------------------|-----------------------------------||
||o-5-5-5-5-5-5-5-5-----------------|-0-0-0-0-0-0-0-0-0-0-0-0-0-0-0-0--o||
||------------------6-6-6-6-6-6-6-6-|-0-0-0-0-0-0-0-0-0-0-0-0-0-0-0-0---||


[Interlude]
&
Gtr VI
E E E Q E Q E E E Q E E E E E E E E E Q E E E Q E Q
E||--1-----1--------|-------3--------|---------0-------|----------0------|
B||o---3------3-----|-----0----0-----|-------3---3-----|-------3----3----|
G||------2------2---|-0-2------------|-----0-------0---|-----1-----------|
D||-----------------|----------------|---2-------------|---0-------------|
A||o----------------|------------0-2-|-3---------------|-2---------------|
D||-----------------|----------------|-----------------|-----------------|
|
| Gtr V
| Q E Q E E E Q E Q E E E Q E Q E E E Q E Q E E E
E||--1---1-1--1-1-0-|-3---3-3--3-3-0-|-0---0-0---0-0-0-|-0---0-0--0-0-0--|
B||o-3---3-3--3-3-0-|-3---3-3--3-3-0-|-1---1-1---1-1-0-|-0---0-0--0-0-0--|
G||--2---2-2--2-2-0-|-0---0-0--0-0-0-|-0---0-0---0-0-0-|-1---1-1--1-1-0--|
D||--0---0-0--0-0-0-|-0---0-0--0-0-0-|-2---2-2---2-2-0-|-0---0-0--0-0-0--|
A||o----------------|-2---2-2--2-2---|-3---3-3---3-3---|-2---2-2--2-2----|
E||-----------------|----------------|-----------------|-----------------|


E E E Q E Q E E E Q E Q E E E Q E E E W
E|----------------|----------------|----------------|-^1--------------||
B|-------0--------|-------0--------|-------1--------|-^1-------------o||
G|-----5----5-----|-----5----5-----|-----0----0-----|-^0--------------||
D|---2--------2---|---2--------2---|---3--------3---|-^3--------------||
A|-0--------------|----------------|-3------------3-|----------------o||
D|----------------|-5--------------|----------------|-----------------||
|
| Q E Q E E E Q E Q E E E Q E Q E E E Q E Q E E E
E|-0---0-0--0-0-0-|-3---3-3--3-3-0-|-1---1-1--1-1-1-|--1--1-1--1-1-0--||
B|-1---1-1--1-1-0-|-3---3-3--3-3-0-|-1---1-1--1-1-1-|--1--1-1--1-1-0-o||
G|-2---2-2--2-2-0-|-0---0-0--0-0-0-|-0---0-0--0-0-0-|--0--0-0--0-0-0--||
D|-2---2-2--2-2-0-|-0---0-0--0-0-0-|-3---3-3--3-3-3-|--3--3-3--3-3-0--||
A|-0---0-0--0-0---|-2---2-2--2-2---|-3---3-3--3-3-3-|--3--3-3--3-3---o||
D|----------------|----------------|----------------|-----------------||


[Breakdown]
Gtrs I, II
Q. H E +Q. H +E 4x
E||--------------|-----------------||
B||o-------------|----------------o||
G||--7-----------|-----------------||
D||--7----6----5-|-(5)---3----(3)--||
A||o-5----6----5-|-(5)---3----(3)-o||
D||-------6----5-|-(5)---3----(3)--||


[Pre-Guitar Solo]
Gtr III
Q. H E +Q. E H
E|--------------------------------|---------------------------------------|
B|--------------------------------|---------------------------------------|
G|--7-----------------------------|---------------------------------------|
D|--7----------6------------5-----|--(5)----------------------------------|
A|--5----------6------------5-----|--(5)----------------------------------|
D|-------------6------------5-----|--(5)----------------------------------|
|
| Gtr II
| ~~~~~~~~~~~~~~~~ ~~~~~~~~~~~~~
| |--3--| |--3--|
| E. +E. Q +Q E +Q. S S S S S S E +Q
E|--------------------------------|---------------------------------------|
B|-15----(15)--9------(9)---8-----|--(8)---------------10-13-15b17==(15)--|
G|-17b19-(17)-11b13--(11)--10b12--|-(10)------10h12h13--------------------|
D|--------------------------------|--------12-----------------------------|
A|--------------------------------|---------------------------------------|
D|--------------------------------|---------------------------------------|
|
| Gtr I
| W W
E|--------------------------------|---------------------------------------|
B|--------------------------------|---------------------------------------|
G|--------------------------------|---------------------------------------|
D|--------------------------------|---------------------------------------|
A|--------------------------------|---------------------------------------|
D|--------------------------------|---------------------------------------|


Q. H E +Q. E H
E|------------------------------------|---------------------|
B|------------------------------------|---------------------|
G|---7--------------------------------|---------------------|
D|---7----------6----------------5----|--(5)----------------|
A|---5----------6----------------5----|--(5)----------------|
D|--------------6----------------5----|--(5)----------------|
|
| \7_______|
| +H +H +Q. H +E
E|------------------------------------|---------------------|
B|-(15)--------------(15)r============|=(15)----------------|
G|------------------------------------|---------------------|
D|------------------------------------|---------------------|
A|------------------------------------|---------------------|
D|------------------------------------|--------0-------(0)--|
|
| ~~~~~~~~~~~~~~~~ ~~~~~~~~~~~~
| E. +E. Q +Q E +Q. H E
E|------------------------------------|---------------------|
B|--15----(15)--9----------(9)---8----|--(8)----------------|
G|--17b19-(17)-11b13------(11)--10b12-|-(10)----------------|
D|------------------------------------|---------------------|
A|------------------------------------|---------------------|
D|------------------------------------|---------------------|


[Guitar Solo]
PM------------------------------------------|
S S S S S S S S S S S S S S S S S S S S S S S S S S S E S E
E|----------------------------------------------------|--------------------------------------------------|
B|----------------------------------------------------|--------------------------------------------------|
G|----------------------------------------------------|--------------------------------------------------|
D|----------------------------------------------------|--------------------------------------------------|
A|-5---5--5--5--5----5--5--5--------------------------|-0---0--0--0--0----0--0--0--3----3--5----5-0---0--|
D|----------------------------6----6-6----6--6--6-6-6-|-0---0--0--0--0----0--0--0--3----3--5----5-0---0--|
|
| ~~~~~~~~~~~~~~~ ~~~~~~~~~~~~~~
| E +E +E +E +E E +E E E +E +E +E +E Q +E
E|----------------------------------------------------|--------------------------------------------------|
B|----------------------------------------------------|--------------------------------------------------|
G|-5b7r==(5)---(5)b7r==(5)---(5)b7---9b10r==(9)---5---|-5b7r==(5)---(5)b7r==(5)---(5)b7---13b14r====(13)-|
D|----------------------------------------------------|--------------------------------------------------|
A|----------------------------------------------------|--------------------------------------------------|
D|----------------------------------------------------|--------------------------------------------------|


PM--------------------------------------|
S S S S S S S S S S S S S S S S S S S S S S S S S S S E S E
E|------------------------------------------------------|--------------------------------------------------|
B|------------------------------------------------------|--------------------------------------------------|
G|------------------------------------------------------|--------------------------------------------------|
D|------------------------------------------------------|--------------------------------------------------|
A|-5---5--5--5--5----5--5--5----------------------------|-0-----0-0-0--0---0--0-0-3--3-5--5-----0-0--------|
D|----------------------------6----6--6----6-6-6---6--6-|-0-----0-0-0--0---0--0-0-3--3-5--5-----0-0--------|
|
| ~~~~~~~~~~~~~~~~~~~~~~~~~~~~~~~~~~~~~ ~~~~~~~~~~~~~~~~
| E +E +E +E +E Q +E Q +E S S S S S Q +S
E|------------------------------------------------------|-8b10========(8)r---10p9p8------10b12======(10)r--|
B|------------------------------------------------------|---------------------------10p9-------------------|
G|-5b7r==(5)---(5)b7r==(5)---(5)b7---16b17r======(16)---|--------------------------------------------------|
D|------------------------------------------------------|--------------------------------------------------|
A|------------------------------------------------------|--------------------------------------------------|
D|------------------------------------------------------|--------------------------------------------------|


PM-----------------------------------------|
S S S S S S S S S S S S S S S S S S S S S S S S S S S E S E
|------------------------------------------|------------------------------------------------|
|------------------------------------------|------------------------------------------------|
|------------------------------------------|------------------------------------------------|
|------------------------------------------|------------------------------------------------|
|--5-5-5-5---5--5-5--5---------------------|---0-0----0----0--0-0----0----0--3----3-5-5-0-0-|
|-----------------------6----6-6-6-6-6-6-6-|---0-0----0----0--0-0----0----0--3----3-5-5-0-0-|
|
| ~~~~~~~~~~~~~ ~~~~~ ~~~~~
| |----3----| |----3----|
| Q +E S S H E E E E E E H
|-10-------(10)---8-10-13b15---------------|-/18---17---16---15---13---15---15b17-----------|
|------------------------------------------|------------------------------------------------|
|------------------------------------------|------------------------------------------------|
|------------------------------------------|------------------------------------------------|
|------------------------------------------|------------------------------------------------|
|------------------------------------------|------------------------------------------------|


PM-----------------------------------------|
S S S S S S S S S S S S S S S S S S S S S S S S S S S E S E
|----------------------------------------------|--------------------------------------------------------|
|----------------------------------------------|--------------------------------------------------------|
|----------------------------------------------|--------------------------------------------------------|
|----------------------------------------------|--------------------------------------------------------|
|---5-5--5-5--5-5--5--5------------------------|--0----0---0--0---0--0-0-0--3--3--5--5-----0-0----------|
|------------------------6--6--6--6--6--6--6-6-|--0----0---0--0---0--0-0-0--3--3--5--5-----0-0----------|
|
| ~~~~~~~~~~ ~~~~~~~~~~~~~~~~
| E E E S S S S S S S S E E +E +Q S S S Q +S
E|-/18---17---15---------------------------15---|-15b17r==(15)---(15)----------------15b16======(15)r----|
B|-----------------------------13-13-13-13------|---------------------------------13---------------------|
G|-----------------13-13-13-13------------------|------------------------------13------------------------|
D|----------------------------------------------|---------------------------12---------------------------|
A|----------------------------------------------|--------------------------------------------------------|
D|----------------------------------------------|--------------------------------------------------------|


S S S S S S S S S S S S S S S S
E|-------------------------------------------------|
B|-------------------------------------------------|
G|-------------------------------------------------|
D|-------------------------------------------------|
A|--5--5--5--5--5--5--5--5-------------------------|
D|--------------------------6--6--6--6--6--6--6--6-|
|
| S S S S S S S S S S S S S S S S
E|-------------------------------------------------|
B|-15----------18----------17----------20----------|
G|-------------------------------------------------|
D|----12-12-12----15-15-15----14-14-14----17-17-17-|
A|-------------------------------------------------|
D|-------------------------------------------------|


S S S S S S S S S S S S S S S S
E|-------------------------------------------|
B|-------------------------------------------|
G|-------------------------------------------|
D|-------------------------------------------|
A|--------------------------4-4-4-4--4-4-4-4-|
D|--5--5--5--5--5--5--5--5-------------------|
|
| TP ~~
| S S S S S S S S Q Q
E|-17-18-17-16-17-18-17-16-17----------------|
B|----------------------------------17-------|
G|-------------------------------------------|
D|-------------------------------------------|
A|-------------------------------------------|
D|-------------------------------------------|


S S S S S S S S S S S S S S S S
E|---------------------------------------------------------------------------------------|
B|---------------------------------------------------------------------------------------|
G|---------------------------------------------------------------------------------------|
D|---------------------------------------------------------------------------------------|
A|--5----5-----5----5----5----5-----5----5----7----7-----7----7-----7----7-----7----7----|
D|---------------------------------------------------------------------------------------|
|
| |--------3--------| |--------3--------| |--------3---------| |--------3---------|
| S S S S S S S S S S S S S S S S S S S S S S S S
|-10h12h==13-12p10p==9-10h12h==13-12p10p==9-12h14h==15-14p12p==10-12h14h==15-14p12p==10-|
|---------------------------------------------------------------------------------------|
|---------------------------------------------------------------------------------------|
|---------------------------------------------------------------------------------------|
|---------------------------------------------------------------------------------------|
|---------------------------------------------------------------------------------------|


S S S S S S S S S S S S S S S S
E|-----------------------------------------------------------------------------------------|
B|-----------------------------------------------------------------------------------------|
G|-----------------------------------------------------------------------------------------|
D|-----------------------------------------------------------------------------------------|
A|-----------------------------------------------------------------------------------------|
D|--3----3-----3----3-----3----3-----3----3-----2----2-----2----2-----2----2-----2----2----|
|
| |--------3---------| |--------3---------| |--------3---------| |--------3---------|
| S S S S S S S S S S S S S S S S S S S S S S S S
|-15h17h==18-17p15p==14-15h17h==18-17p15p==14-17h20p==19-17h20p==19-22p20p==19-22p20p==19-|
|-----------------------------------------------------------------------------------------|
|-----------------------------------------------------------------------------------------|
|-----------------------------------------------------------------------------------------|
|-----------------------------------------------------------------------------------------|
|-----------------------------------------------------------------------------------------|


[Dual Solo]
Gtr I
S S S S S S S S S S S S S S S S
E|-13----10----------------10-13-10----------------10-|
B|----------10----------10----------10----------10----|
G|-------------10----10----------------10----10-------|
D|----------------12----------------------12----------|
A|----------------------------------------------------|
D|----------------------------------------------------|
|
| Gtr II
| S S S S S S S S S S S S S S S S
E|-17----13----------------13-17-13----------------13-|
B|----------15----------15----------15----------15----|
G|-------------14----14----------------14----14-------|
D|----------------15----------------------15----------|
A|----------------------------------------------------|
D|----------------------------------------------------|
|
| Gtr IV
| ~~~~~
| H H
E|-20b22----------------------------------------------|
B|----------------------------------------------------|
G|----------------------------------------------------|
D|----------------------------------------------------|
A|----------------------------------------------------|
D|----------------------------------------------------|


S S S S S S S S S S S S S S S S
E|-12--9-----------------9-12--9-----------------9-|
B|-------11----------11----------11----------11----|
G|-----------9-----9-----------------9-----9-------|
D|-------------11----------------------11----------|
A|-------------------------------------------------|
D|-------------------------------------------------|
|
| S S S S S S S S S S S S S S S S
E|-15----------------------15----------------------|
B|----17----------------17----17----------------17-|
G|-------15----------15----------15----------15----|
D|----------17-14-17----------------17-14-17-------|
A|-------------------------------------------------|
D|-------------------------------------------------|
|
| W
E|-------------------------------------------------|
B|-------------------------------------------------|
G|-------------------------------------------------|
D|-------------------------------------------------|
A|-------------------------------------------------|
D|-------------------------------------------------|


~~~~ ~~
Q. E E E E E H E E E E
E|---------------------12-13--17-|-15----------13-15-13-----|
B|-/15----------/13-15-----------|-----------------------15-|
G|-------------------------------|--------------------------|
D|-------------------------------|--------------------------|
A|-------------------------------|--------------------------|
D|-------------------------------|--------------------------|
|
| ~~~~ ~~
| Q. E E E E E H E E E E
E|-/13----------/12-13-15-17--20-|-18----------17-18-17-----|
B|-------------------------------|-----------------------18-|
G|-------------------------------|--------------------------|
D|-------------------------------|--------------------------|
A|-------------------------------|--------------------------|
D|-------------------------------|--------------------------|
|
| Gtr III
| S S S S H +Q S S S S H +Q
E|-------------------------------|--------------------------|
B|-------------------------------|--------------------------|
G|-------------------------------|--------------------------|
D|------------0-----------(0)----|----------5--------(5)----|
A|------------0-----------(0)----|----------5--------(5)----|
D|---0--0-0-0-0-----------(0)----|--5-5-5-5-5--------(5)----|


~~ ~~ ~~
H E E E E Q Q Q Q
E|-12-------------------------15-|-13-----------------------------|
B|-----------------13-15--13-----|----------14--15----------17----|
G|-------------------------------|--------------------------------|
D|-------------------------------|--------------------------------|
A|-------------------------------|--------------------------------|
D|-------------------------------|--------------------------------|
|
| ~~ ~~ ~~
| H E E E E Q Q Q Q
E|-15-------------------------18-|-17-----------------------15----|
B|-----------------17-18--17-----|----------17--18----------------|
G|-------------------------------|--------------------------------|
D|-------------------------------|--------------------------------|
A|-------------------------------|--------------------------------|
D|-------------------------------|--------------------------------|
|
| S S S S H +Q S S S S Q S S S S Q
E|-------------------------------|--------------------------------|
B|-------------------------------|--------------------------------|
G|-------------------------------|--------------------------------|
D|-------------10--------(10)----|-----------7--------------11----|
A|-------------10--------(10)----|-----------7--------------11----|
D|-10-10-10-10-10--------(10)----|--7-7-7-7--7--11-11-11-11-11----|


~~~ ~~
Q E E E E E E H E E E E
E|-/13-----------------12-13--17-|-15----------13-15-13-----|
B|-----------/15-13-15-----------|-----------------------15-|
G|-------------------------------|--------------------------|
D|-------------------------------|--------------------------|
A|-------------------------------|--------------------------|
D|-------------------------------|--------------------------|
|
| ~~~ ~~
| Q E E E E E E H E E E E
E|-/17-------/13-12-13-15-17--20-|-18----------17-18-17-----|
B|-------------------------------|-----------------------18-|
G|-------------------------------|--------------------------|
D|-------------------------------|--------------------------|
A|-------------------------------|--------------------------|
D|-------------------------------|--------------------------|
|
| S S S S H +Q S S S S H +Q
E|-------------------------------|--------------------------|
B|-------------------------------|--------------------------|
G|-------------------------------|--------------------------|
D|-------------0----------(0)----|----------5--------(5)----|
A|-------------0----------(0)----|----------5--------(5)----|
D|---0-0-0-0---0----------(0)----|--5-5-5-5-5--------(5)----|


~~ ~~ ~~
H E E E E Q Q Q Q
E|-12-------------------------15-|-13-----------------------------|
B|-----------------13-15--13-----|----------14--15----------17----|
G|-------------------------------|--------------------------------|
D|-------------------------------|--------------------------------|
A|-------------------------------|--------------------------------|
D|-------------------------------|--------------------------------|
|
| ~~ ~~ ~~
| H E E E E Q Q Q Q
E|-15-------------------------18-|-17-----------------------15----|
B|-----------------17-18--17-----|----------17--18----------------|
G|-------------------------------|--------------------------------|
D|-------------------------------|--------------------------------|
A|-------------------------------|--------------------------------|
D|-------------------------------|--------------------------------|
|
| S S S S H +Q S S S S Q S S S S Q
E|-------------------------------|--------------------------------|
B|-------------------------------|--------------------------------|
G|-------------------------------|--------------------------------|
D|-------------10--------(10)----|-----------7--------------11----|
A|-------------10--------(10)----|-----------7--------------11----|
D|-10-10-10-10-10--------(10)----|--7-7-7-7--7--11-11-11-11-11----|


~~~ ~~~
Q H. Q H. S S S S S S S S S S S S S S S S
E|-13--------------|-15--12----------|-13-15-13-12-13-15-13-12-13-15-13-12-13-15-13-12-|
B|-----15----------|-----------------|-------------------------------------------------|
G|-----------------|-----------------|-------------------------------------------------|
D|-----------------|-----------------|-------------------------------------------------|
A|-----------------|-----------------|-------------------------------------------------|
D|-----------------|-----------------|-------------------------------------------------|
|
| ~~~ ~~~
| Q H. Q H. S S S S S S S S S S S S S S S S
E|-17--13----------|-18--15----------|-17-18-17-16-17-18-17-16-17-18-17-16-17-18-17-16-|
B|-----------------|-----------------|-------------------------------------------------|
G|-----------------|-----------------|-------------------------------------------------|
D|-----------------|-----------------|-------------------------------------------------|
A|-----------------|-----------------|-------------------------------------------------|
D|-----------------|-----------------|-------------------------------------------------|
|
| PM| ~~ PM|
| H E E Q H E E Q Q Q Q Q
E|-----------------|-----------------|-------------------------------------------------|
B|-----------------|-----------------|-------------------------------------------------|
G|-----------------|-----------------|-------------------------------------------------|
D|-----------------|-----------------|-------------------------------------------------|
A|--0-------3-1-0--|--2-------5-3-1--|--3-----------1-----------0----------------------|
D|--0-------7-5-3--|--2-------8-7-5--|--7-----------5-----------3-----------5----------|
Q Q Q Q


~~
S S S S S S S S S S S S S S S S
E|-13-15-13-12-13-12-------18-17-16----13-12----------|
B|-------------------15-14----------17-------15-13----|
G|----------------------------------------------------|
D|----------------------------------------------------|
A|----------------------------------------------------|
D|----------------------------------------------------|
|
| ~~
| S S S S S S S S S S S S S S S S
E|-17-18-17-16-17-15-------21-20-19----17-------------|
B|-------------------18-17----------20----20-18-17----|
G|----------------------------------------------------|
D|----------------------------------------------------|
A|----------------------------------------------------|
D|----------------------------------------------------|
|
| Q Q Q Q
E|----------------------------------------------------|
B|----------------------------------------------------|
G|-------------------------/2-----------0-------------|
D|--3-----------2----------/3-----------2-------------|
A|--5-----------3-------------------------------------|
D|----------------------------------------------------|


[Verse]
~~
H H H E E E E
E|----------------------------------|-------------------------------------------------|
B|-15-------------------------------|-----------------10------11------12------13------|
G|----------------------------------|-----------------12b14---13b15---14b16---15b17---|
D|----------------------------------|-------------------------------------------------|
A|----------------------------------|-------------------------------------------------|
D|----------------------------------|-------------------------------------------------|
|
| ~~
| H H W
E|----------------------------------|-------------------------------------------------|
B|-18-------------------------------|-------------------------------------------------|
G|----------------------------------|-------------------------------------------------|
D|----------------------------------|-------------------------------------------------|
A|----------------------------------|-------------------------------------------------|
D|----------------------------------|-------------------------------------------------|
|
| PM--------------------------------------------|
| S S S S S S S S S S S S S S S S S S S S S S S S S S S S S S S S
|----------------------------------|-------------------------------------------------|
|----------------------------------|-------------------------------------------------|
|----------------------------------|-------------------------------------------------|
|----------------------------------|-------------------------------------------------|
|--5-5-5-5-5-5-5-5-----------------|-0-0-0-0-0-0-0-0--0----0--0----0--0----0--0----0-|
|------------------6-6-6-6-6-6-6-6-|-0-0-0-0-0-0-0-0--0----0--0----0--0----0--0----0-|


H H H S S S S S S S S
E|-----------------------------------------|---------------------------------------------|
B|-15-------------------9------------------|-3-----------------------------7--8--9-10----|
G|-17b19---------------11b13---------------|-5b7----------------7--8--9-10---------------|
D|-----------------------------------------|---------------------------------------------|
A|-----------------------------------------|---------------------------------------------|
D|-----------------------------------------|---------------------------------------------|
|
| W H S S S S S S S S
E|-----------------------------------------|-------------------------------9-10-11-12----|
B|-----------------------------------------|-------------------10-11-12-13---------------|
G|-----------------------------------------|---------------------------------------------|
D|-----------------------------------------|---------------------------------------------|
A|-----------------------------------------|---------------------------------------------|
D|-----------------------------------------|---------------------------------------------|
|
| PM------------------------------------|
| S S S S S S S S S S S S S S S S S S S S S S S S S S S S S S S S
|-----------------------------------------|---------------------------------------------|
|-----------------------------------------|---------------------------------------------|
|-----------------------------------------|---------------------------------------------|
|-----------------------------------------|---------------------------------------------|
|--5----5-5-5-5-5-5-5---------------------|-0---0-0-0-0-0-0-0--0--0--0--0-0--0--0--0----|
|----------------------6----6-6-6-6-6-6-6-|-0---0-0-0-0-0-0-0--0--0--0--0-0--0--0--0----|


Q +Q Q +Q Q +Q Q +Q
E|--9b10--------(9)------------------------------|------------------------------------------|
B|-------------------------8b9---------(8)-------|------------------------------------------|
G|-----------------------------------------------|-6b7--------(6)---------------------------|
D|-----------------------------------------------|----------------------6b7-------(6)-------|
A|-----------------------------------------------|------------------------------------------|
D|-----------------------------------------------|------------------------------------------|
|
| Q +Q Q +Q Q +Q Q +Q
E|-16b17-------(16)-------12b13-------(12)-------|-9b10-------(9)---------------------------|
B|-----------------------------------------------|----------------------8b9-------(8)-------|
G|-----------------------------------------------|------------------------------------------|
D|-----------------------------------------------|------------------------------------------|
A|-----------------------------------------------|------------------------------------------|
D|-----------------------------------------------|------------------------------------------|
|
| PM-------------------------------------|
| S S S S S S S S S S S S S S S S S S S S S S S S S S S S S S S S
|-----------------------------------------------|------------------------------------------|
|-----------------------------------------------|------------------------------------------|
|-----------------------------------------------|------------------------------------------|
|-----------------------------------------------|------------------------------------------|
|--5----5-5-5---5--5-5-5------------------------|-0----0-0-0--0--0-0-0-0---0-0-0--0--0-0-0-|
|-------------------------6----6-6-6---6--6-6-6-|-0----0-0-0--0--0-0-0-0---0-0-0--0--0-0-0-|


H H H H
E|-----------------------------------------|-----------------------------------|
B|-15-------------------9------------------|-3-----------------15--------------|
G|-17b19---------------11b13---------------|-5b7---------------17b19-----------|
D|-----------------------------------------|-----------------------------------|
A|-----------------------------------------|-----------------------------------|
D|-----------------------------------------|-----------------------------------|
|
| H H H H
E|-----------------------------------------|-----------------------------------|
B|-15-------------------9------------------|-3-----------------15--------------|
G|-17b19---------------11b13---------------|-5b7---------------17b19-----------|
D|-----------------------------------------|-----------------------------------|
A|-----------------------------------------|-----------------------------------|
D|-----------------------------------------|-----------------------------------|
|
| PM--------------------------|
| S S S S S S S S S S S S S S S S S S S S S S S S S S S S E E
|-----------------------------------------|-----------------------------------|
|-----------------------------------------|-----------------------------------|
|-----------------------------------------|-----------------------------------|
|-----------------------------------------|-------------------------------0-2-|
|--5----5-5-5-5-5-5-5---------------------|-0---0-0-0-0-0-0-0--0----0-0-0-0-2-|
|----------------------6----6-6-6-6-6-6-6-|-0---0-0-0-0-0-0-0--0----0-0-0-0-2-|


[Bridge]
Gtrs I, II
E E E E E E E E E E E E E E E E E E E E E E E E H S S S S E E
E||------------------|-----------------|-----------------|--------------------||
B||o-----------------|-----------------|-----------------|-------------------o||
G||------------------|-5-5-5-5-5-5-5-5-|-----------------|--------------------||
D||--3-3-3-3-3-3-3-3-|-5-5-5-5-5-5-5-5-|-5-5-5-5-5-5-5-5-|-0------------0-2---||
A||o-3-3-3-3-3-3-3-3-|-3-3-3-3-3-3-3-3-|-5-5-5-5-5-5-5-5-|-0------------0-2--o||
D||--3-3-3-3-3-3-3-3-|-----------------|-5-5-5-5-5-5-5-5-|-0----0-0-0-0-0-2---||


[Chorus]
PM-| PM| PM PM
q q E E e e E E e Q E E e E E E E E E E E E E e E E a E E E
E||----------------|----------------|-----------------|--------------------||
B||o---------------|----------------|-----------------|-------------------o||
G||--7--7--7-7-----|----------------|-5-5-5-5-5-5-5-5-|-------5-5----------||
D||--7--7--7-7-----|-5-5---3--3-3---|-5-5-5-5-5-5-5-5-|-3-3---5-5----------||
A||o-5--5--5-5-0-0-|-5-5-0-3--3-3-0-|-3-3-3-3-3-3-3-3-|-3-3-0-3-3-0S5-7-8-o||
D||------------0-0-|-5-5-0-3--3-3-0-|-----------------|-3-3-0--------------||


[Interlude]
Gtr VI
E E E Q E Q E E E Q E E E E E E E E E Q E E E Q E Q
E||--1-----1--------|-------3--------|---------0-------|----------0------|
B||o---3------3-----|-----0----0-----|-------3---3-----|-------3----3----|
G||------2------2---|-0-2------------|-----0-------0---|-----1-----------|
D||-----------------|----------------|---2-------------|---0-------------|
A||o----------------|------------0-2-|-3---------------|-2---------------|
D||-----------------|----------------|-----------------|-----------------|
|
| Gtr V
| Q E Q E E E Q E Q E E E Q E Q E E E Q E Q E E E
E||--1---1-1--1-1-0-|-3---3-3--3-3-0-|-0---0-0---0-0-0-|-0---0-0--0-0-0--|
B||o-3---3-3--3-3-0-|-3---3-3--3-3-0-|-1---1-1---1-1-0-|-0---0-0--0-0-0--|
G||--2---2-2--2-2-0-|-0---0-0--0-0-0-|-0---0-0---0-0-0-|-1---1-1--1-1-0--|
D||--0---0-0--0-0-0-|-0---0-0--0-0-0-|-2---2-2---2-2-0-|-0---0-0--0-0-0--|
A||o----------------|-2---2-2--2-2---|-3---3-3---3-3---|-2---2-2--2-2----|
E||-----------------|----------------|-----------------|-----------------|


E E E Q E Q E E E Q E Q E E E Q E E E W
E|----------------|----------------|----------------|-^1--------------||
B|-------0--------|-------0--------|-------1--------|-^1-------------o||
G|-----5----5-----|-----5----5-----|-----0----0-----|-^0--------------||
D|---2--------2---|---2--------2---|---3--------3---|-^3--------------||
A|-0--------------|----------------|-3------------3-|----------------o||
D|----------------|-5--------------|----------------|-----------------||
|
| Q E Q E E E Q E Q E E E Q E Q E E E Q E Q E E E
E|-0---0-0--0-0-0-|-3---3-3--3-3-0-|-1---1-1--1-1-1-|--1--1-1--1-1-0--||
B|-1---1-1--1-1-0-|-3---3-3--3-3-0-|-1---1-1--1-1-1-|--1--1-1--1-1-0-o||
G|-2---2-2--2-2-0-|-0---0-0--0-0-0-|-0---0-0--0-0-0-|--0--0-0--0-0-0--||
D|-2---2-2--2-2-0-|-0---0-0--0-0-0-|-3---3-3--3-3-3-|--3--3-3--3-3-0--||
A|-0---0-0--0-0---|-2---2-2--2-2---|-3---3-3--3-3-3-|--3--3-3--3-3---o||
D|----------------|----------------|----------------|-----------------||


[Outro]
N.C.

S S S S S S S S S S S S S S S S S S S S S S S S S S S S S S S S
E||--------------------------------------|------------------------------------|
B||o----------6-----------------6--------|---------5--------------------------|
G||--------7-----7---7-4---4-7-----7-4---|-------7---7-4----------------------|
D||--7---7---------7-----5-------------7-|-5---5---------5-5-3-7-6--9--6-7-9--|
A||o---8---------------------------------|---7--------------------------------|
D||--------------------------------------|------------------------------------|
|

| S S S S S S S S S S S S S S S S S S S S S S S S S S S S S S S S
E||--------------------------------------|------------------------------------|
B||o-------------------------------------|------------------------------------|
G||-----------7--------------4--7--4-----|-------4-5-4------------------------|
D||------7-------7---7-5---5---------5-3-|-2---5-------5------------6------6--|
A||o-5-8---8-------8-----5---------------|---3-----------7-7-5-8-7-----7-9----|
D||--------------------------------------|------------------------------------|
|

| S S S S +S S E S S S S +S S S S S S S S S S E S S S S +S S E
E||--1-----1-(1)-------------3-(3)-------|---------0-------------------0------|
B||o---3---------3---------0-------0-----|-------3---3-----------3-(3)---3----|
G||------2---------2---0h2---------------|-----0-------0-------1--------------|
D||--------------------------------------|---2---------------0----------------|
A||o---------------------------------0-2-|-3---------------2------------------|
D||--------------------------------------|------------------------------------|


S S S S S S S S S S S S S S S S
E|------------------------------------------|
B|------------------------------------------|
G|---------------------------------4----4-5-|
D|-10-7-------10--7-----------5-------5-----|
A|-------7-----------7----2-5---5-----------|
D|---------10----------10-------------------|
|
| S S S S S S S S S S S S S S S S
E|------------------------------------------|
B|------------------------------------------|
G|------------------------------------------|
D|--7----------7-------------------5----5-7-|
A|----7-----------7---------2-5-2-----5-----|
D|------10--7-------10--7-5-----------------|
|
| S S S S +S S E S S S S +S S E
E|------------------------------------------|
B|----------0-(0)---------------0-(0)-------|
G|-------5--------5-----------5-------5-----|
D|----2--------------2------2-----------2---|
A|--0---------------------------------------|
D|------------------------5-----------------|


1. 2.
Q.. T T S S S S S S S S W
E|----------------------------------------||------*|
B|---------------------------------------o||------*|
G|----------------------------------------||------*|
D|-7-----------------7-7-7S5-5S3-3S2-2S5--||-7----*|
A|---------------------------------------o||------*|
D|----------------------------------------||------*|
|
| Q.. T T S S S S S S S S W
E|----------------------------------------||------*|
B|---------------------------------------o||------*|
G|----------------------------------------||------*|
D|-3--------------------------------------||-3----*|
A|-------------------8-8-8S7-7S5-5S3-3S7-o||------*|
D|----------------------------------------||------*|
|
| S S S S +S S S S H W
E|-----------------------1----------------||-1----*|
B|---------1-(1)---------1---------------o||-1----*|
G|-------0-------0-------0----------------||-0----*|
D|-----3-----------3-----3----------------||-3----*|
A|-3-----------------3-------------------o||------*|
D|----------------------------------------||------*|


Duration Legend
---------------
W - whole; H - half; Q - quarter; E - 8th; S - 16th; T - 32nd; X - 64th; a - acciaccatura
+ - note tied to previous; . - note dotted; .. - note double dotted
Uncapitalized letters represent notes that are staccato (1/2 duration)
Irregular groupings are notated above the duration line
Duration letters will always appear directly above the note/fret number it represents the
duration for. Duration letters with no fret number below them represent rests. Multi-
bar rests are notated in the form Wxn, where n is the number of bars to rest for. Low
melody durations appear below the staff

Tablature Legend
----------------
h - hammer-on
p - pull-off
b - bend
pb - pre-bend
r - bend release (if no number after the r, then release immediately)
/\ - slide into or out of (from/to "nowhere")
s - legato slide
S - shift slide
- natural harmonic
[n] - artificial harmonic
n(n) - tapped harmonic
~ - vibrato
tr - trill
T - tap
TP - trem. picking
PM - palm muting
\n/ - tremolo bar dip; n = amount to dip
\n - tremolo bar down
n/ - tremolo bar up
/n\ - tremolo bar inverted dip
= - hold bend; also acts as connecting device for hammers/pulls
<> - volume swell (louder/softer)
x - on rhythm slash represents muted slash
o - on rhythm slash represents single note slash
Tunning: Standard (E A D G B e)
----------------------------------------------------------------------------
Bat Country - Avenged Sevenfold
----------------------------------------------------------------------------
Tabbed by:llama_slap
Email:sk84life@adelphia.net

Tuning:Drop D (D A D G B E)
Nobody could seem to get this right, so I took a
shot at it. And this tab took a LONG time, so please rate and comment!

UPDATE! I fixed part of the solo...credit goes to A7X4L for adjusting it.


[Intro]

Guitar 1, Guitar 2 Comes in 3rd and 4th times
e|----------------------------------------------------------------------|
B|----------------------------------------------------------------------|
G|-7-7-777--------------------------------------------------------------|
D|-7-7-777-6-6--0--0-0-0-(don't play this 2nd time)---------------------|x4
A|-5-5-555-6-6--0--0-0-0-5-3-5-6-5-3-0----------------------------------|
D|-0-0-000-6-6--0--0-0-0-5-3-5-6-5-3-0----------------------------------|


[Pre-Verse]

Both Guitars
e|------------------------------------------------------------------------|
B|------------------------------------------------------------------------|
G|-7----------------7-----------------------------------------------------|
D|-7---6---5---3----7---6---5---3-----------------------------------------|
A|-5---6---5---3----5---6---5---3-----------------------------------------|
D|-0---6---5---3----0---6---5---3-----------------------------------------|


[Verse]

Both Guitars
e|----------------------------------------------------|
B|----------------------------------------------------|
G|----------------------------------------------------|x2
D|----------------------------------------------------|
A|-55555555-------------------------------------------|
D|---------66666666-0000000000000000------------------|
................

Both Guitars
e|-------------------------------------------------------------------------|
B|-------------------------------------------------------------------------|
G|-------------------------------------------------------------------------|
D|-------------------------------------------------------------------------|
A|-55555555----------------44444444-5555555577777777-----------------------|
D|---------6666666655555555-------------------------33333333222222222------|


[Chorus] x2

Both Guitars
e|-----------------------------------------------------------------------|
B|-----------------------------------------------------------------------|
G|-7-7-77-------------------55555555-------5-----------------------------|
D|-7-7-77----55---3-3-3-----55555555--33---5---2-3-----------------------|x2
A|-5-5-55-00-55-0-3-3-3-0h3-33333333--33-0-3-0---------------------------|
D|-0-0-00-00-55-0-3-3-3-0h3-----------33-0-------------------------------|
.. . .


[Verse]

Both Guitars
e|----------------------------------------------------|
B|----------------------------------------------------|
G|----------------------------------------------------|
D|----------------------------------------------------|x4
A|-55555555-------------------------------------------|
D|---------66666666-0000000000000000------------------|
................

Both Guitars
e|-------------------------------------------------------------------------|
B|-------------------------------------------------------------------------|
G|-------------------------------------------------------------------------|
D|-------------------------------------------------------------------------|
A|-55555555----------------44444444-5555555577777777-----------------------|
D|---------6666666655555555-------------------------33333333222222222------|


[Chorus]

Both Guitars
e|-----------------------------------------------------------------------|
B|-----------------------------------------------------------------------|
G|-7-7-77-------------------55555555-------5-----------------------------|
D|-7-7-77----55---3-3-3-----55555555--33---5---2-3-----------------------|x2
A|-5-5-55-00-55-0-3-3-3-0h3-33333333--33-0-3-0---------------------------|
D|-0-0-00-00-55-0-3-3-3-0h3-----------33-0-------------------------------|
.. . .


[Bridge] x2 (Clean)

Guitar 1
e|-1-11111-0-3-33333-0-0-00000-0-0-00000-0-0-00000-0-3-33333-0-------------|
B|-3-33333-0-3-33333-0-1-11111-0-0-00000-0-1-11111-0-3-33333-0-------------|
G|-2-22222-0-0-00000-0-0-00000-0-1-11111-0-2-22222-0-0-00000-0-------------|
D|-0-00000-0-0-00000-0-2-22222-0-0-00000-0-2-22222-0-0-00000-0-------------|
A|-----------2-22222---3-33333---2-22222---0-00000---2-22222---------------|
D|-------------------------------------------------------------------------|

e|-1-1111111-11111-0-------------------------------------------------------|
B|-1-1111111-11111-0-------------------------------------------------------|
G|-0-0000000-00000-0-------------------------------------------------------|
D|-3-3333333-33333-0-------------------------------------------------------|
A|-3-3333333-33333---------------------------------------------------------|
D|-------------------------------------------------------------------------|

Guitar 2
e|1------1-(1)-----------3-(3)---------------0------------------0----------|
B|--3---------3--------0-------0-----------3---3----------3-(3)---3--------|
G|----2---------2--0h2-------------------0-------0------1------------------|
D|-------------------------------------2--------------0--------------------|
A|-------------------------------0-2-3--------------2----------------------|
D|-------------------------------------------------------------------------|

e|-----------------------------------------------------1-------------------|
B|-------0-(0)------------0-(0)------------1-(1)-------1-------------------|
G|-----5-------5--------5-------5--------0-------0-----0-let ring----------|
D|---2-----------2----2-----------2----3-----------3---3-------------------|
A|-0---------------------------------3---------------3---------------------|
D|------------------5------------------------------------------------------|


[Pre-Verse] x4

Both Guitars
e|------------------------------------------------------------------------|
B|------------------------------------------------------------------------|
G|-7----------------7-----------------------------------------------------|
D|-7---6---5---3----7---6---5---3-----------------------------------------|
A|-5---6---5---3----5---6---5---3-----------------------------------------|
D|-0---6---5---3----0---6---5---3-----------------------------------------|


[Solo]

Guitar 1
e|-------------------------------------------------------------------------|
B|------------------------------------15----9----8-------------------------|
G|-7----------------------------------17b--11b--10b-------------16/5-------|
D|-7----6----5----0--------------------------------------------------------|
A|-5----6----5----0--------------------------------------------------------|
D|-0----6----5----0--------------------------------------------------------|

e|------------------------------------------------|
B|------------------------------------------------|
G|------------------------------------------------|
D|------------------------------------------------|This bar x3
A|-55555555---------------------------------------|
D|---------66666666-00000000-0-3-5-6--6-6-6-------|
........

e|-------------------------------------------------------------------------|
B|-------------------------------------------------------------------------|
G|-------------------------------------------------------------------------|
D|-------------------------------------------------------------------------|
A|-55555555----------------444444445555555577777777------------------------|
D|---------6666666655555555------------------------33333333222222222-------|


Guitar 2
e|-------------------------------------------------------------------------|
B|-15---9----8-------------------10-13-15--15b---15~-----------------------|
G|-17b--11b--10b--------10-12-13-------------------------------------------|
D|---------------/12-12----------------------------------------------------|
A|-------------------------------------------------------------------------|
D|------------------------------------------------------0-(0)--------------|
dive with whammy bar

(you still strike the 7, 13 and 17 after you slide to them)
e|-------------------------------------------------------------------------|
B|---------------------------------13b-10----------------------------------|
G|-5brbr/7~--5brbr/13~--5brbr/17~---------13p10h13p10-19b-19~-13p10-13-22~-|
D|-------------------------------------------------------------------------|
A|-------------------------------------------------------------------------|
D|-------------------------------------------------------------------------|

e|-17b-17-16-15----15------/18-17-13---------------------------------------|
B|--------------18----18~-------------------------------------15b-15~------|
G|------------------------------------13-13-13-13-17-17-17-17--------------|
D|-------------------------------------------------------------------------|
A|-------------------------------------------------------------------------|
D|-------------------------------------------------------------------------|

e|---------------10----------13----------12-------15-----------------------|
B|----15/18-18~-----------------10-10-10----9-9-9----14-14-14--------------|
G|-13---------------10-10-10-----------------------------------------------|
D|-------------------------------------------------------------------------|
A|-------------------------------------------------------------------------|
D|-------------------------------------------------------------------------|

e|-17-18-17-16-17-18-17-16-17t-12~--10-11-12-13-12-11-10-11-12-13-12-11----|
B|-------------------------------------------------------------------------|
G|-------------------------------------------------------------------------|
D|-------------------------------------------------------------------------|
A|-------------------------------------------------------------------------|
D|-------------------------------------------------------------------------|

e|-12-13-14-15-14-13-12-13-14-15-14-13--13-15-16-17-16-15-13-15-16-17-16-15|
B|-------------------------------------------------------------------------|
G|-------------------------------------------------------------------------|
D|-------------------------------------------------------------------------|
A|-------------------------------------------------------------------------|
D|-------------------------------------------------------------------------|

e|-17-18-21-18-17-------------17-18-20~------------------------------------|
B|----------------18-17-18-20----------------------------------------------|
G|-------------------------------------------------------------------------|
D|-------------------------------------------------------------------------|
A|-----------------------------------------0(Guitar 3 does this)-----------|
D|-----------------------------------------0-------------------------------|

Sweep Picking- Guitar 1
e|-13--------------------------------12------------------------------------|
B|----15----------------15-----------------12-------------12---------------|
G|-------14----------14-----------------13----13-13----13------------------|
D|----------15-12-15--------2 times-----------------14----------2 times----|
A|-------------------------------------------------------------------------|
D|-------------------------------------------------------------------------|

Sweep Picking- Guitar 2
e|-17-13----------------13-----------16-12---------------------------------|
B|-------15----------15--------------------15-12-------12-15---------------|
G|----------14----14--------------------------------13---------------------|
D|-------------15-----------2 times--------------14-------------2 times----|
A|-------------------------------------------------------------------------|
D|-------------------------------------------------------------------------|

Guitar 1 x2 1st time
e|-13--------------/17-15~--12-13-12/10-12~----------/15-13/-9-10-12(17/13)|
B|-----------------------------------------/13-15-13-----------------------|
G|----/10-10-12-14---------------------------------------------------------|
D|-------------------------------------------------------------------------|
A|-------------------------------------------------------------------------|
D|-------------------------------------------------------------------------|

Guitar 2 x2 1st time
e|---------12-13-/20-18~--17-18-17/13-15~-/12-13-12-/18-17/-12-13-15(13/10)|
B|15-----15----------------------------------------------------------------|
G|---/14-------------------------------------------------------------------|
D|-------------------------------------------------------------------------|
A|-------------------------------------------------------------------------|
D|-------------------------------------------------------------------------|

Guitar 3
e|----------------------------------------------|
B|----------------------------------------------|
G|------------------------5--------2-------2----|
D|------0--------5--------5--------2-------2----|x2
A|------0--------5---3333-3---0000-0--4444-4----|
D|-0000-0---5555-5------------------------------|
.... .... .... .... ....

Guitar 1
e|-17/13-13~-13/18-18/15~--13-15-13-12-13-15-13-12-13-15-13-12-13-15-13-12-|
B|-------------------------------------------------------------------------|
G|-------------------------------------------------------------------------|
D|-------------------------------------------------------------------------|
A|-------------------------------------------------------------------------|
D|-------------------------------------------------------------------------|

Guitar 2
e|-13/10-10~-10/15-15/12~--17-18-17-16-17-18-17-16-17-18-17-16-17-18-17-16-|
B|-------------------------------------------------------------------------|
G|-------------------------------------------------------------------------|
D|-------------------------------------------------------------------------|
A|-------------------------------------------------------------------------|
D|-------------------------------------------------------------------------|

Guitar 3
e|-------------------------------------------------------------------------|
B|-------------------------------------------------------------------------|
G|-------------------------------------------------------------------------|
D|-------------------------------------------------------------------------|
A|-0-----------------------------------------------------------------------|
D|-0--3-2-0--2~~---/5-3-2~~--/7--5--/3--2--/8--7--/12--11------------------|
. . . .

Guitar 4
e|-------------------------------------------------------------------------|
B|-------------------------------------------------------------------------|
G|-------------------------------------------------------------------------|
D|-------------------------------------------------------------------------|
A|-0----------------------------------------8--7--/12--10~~----------------|
D|-0-/10-8-7~-5~~-/12--10--8~--10--8--7--5---------------------------------|
. . . .

Guitar 5
e|-------------------------------------------------------------------------|
B|-------------------------------------------------------------------------|
G|-------------------------------------------------------------------------|
D|-------------------------------------------------------------------------|
A|-------------------------------------------------------------------------|
D|-3~-7-5-3--5~~----8-7-5--/10--8--7--5--/12--11--/15--14------------------|

Guitar 1
e|-13-15-13-12----12-------18-15-------------------------------------------|
B|-------------15----15-14-------17-14----14-17-14-------------------------|
G|-------------------------------------15----------------------------------|
D|-------------------------------------------------------------------------|
A|-------------------------------------------------------------------------|
D|-------------------------------------------------------------------------|

Guitar 2
e|-17-18-17-16----16-------21-17-------------------------------------------|
B|-------------18----18-17-------20-17----17-20-17-------------------------|
G|-------------------------------------18----------------------------------|
D|-------------------------------------------------------------------------|
A|-------------------------------------------------------------------------|
D|-------------------------------------------------------------------------|


[Verse 3]

Guitar 3
e|-----------------------------------------------------------------|
B|-----------------------------------------------------------------|
G|-----------------------------------------------------------------|
D|-----------------------------------------------------------------|x4
A|-55555555--------------------------------------------------------|
D|---------66666666-0000000000000000-------------------------------|
................

Guitar 1
e|-----------------------------------------------------10-12b--------------|
B|-15~--10---11---12---15---9----3------------10-11-13---------------------|
G|------12b--13b--14b--17b--11b--5b---9-10-13------------------------------|
D|-------------------------------------------------------------------------|
A|-------------------------------------------------------------------------|
D|-------------------------------------------------------------------------|

Guitar 2
e|--------------------------------------------------------16b--------------|
B|-18~----------------------------------------14-15-17-18------------------|
G|-----------------------------------13-14-16------------------------------|
D|-------------------------------------------------------------------------|
A|-------------------------------------------------------------------------|
D|-------------------------------------------------------------------------|

Guitar 1
e|-------------------------------------------------------------------------|
B|-14b---9b---6h8h9-6b----3b---9b--3b--15b---------------------------------|
G|------------------------5b--11b--5b--17b---------------------------------|
D|-------------------------------------------------------------------------|
A|-------------------------------------------------------------------------|
D|-------------------------------------------------------------------------|

Guitar 2
e|-------------------------------------------------------------------------|
B|-17b---14b--13h15-13b----------------------------------------------------|
G|-------------------------------------------------------------------------|
D|-------------------------------------------------------------------------|
A|-----------------------55555555----------------------------0-2-----------|
D|-------------------------------66666666-000000000000000000-0-2-----------|
(Guitar 3) ..................

Guitar 1
e|-------------------------------------------------------------------------|
B|-------------------------------------------------------------------------|
G|--------5-----------------------------------5-------3--------2------2----|
D|3-------5-(x8)--5-------0-----------3-------5-(x8)--3-(x16)--2-(x8)-2(x8)|
A-3-(x8)--3-------5-(x7)--0---------2-3-(x8)--3-------1--------0------4----|
D|3---------------5-------0--000000-2-3------------------------------------|
......


[Chorus]

Both Guitars
e|-----------------------------------------------------------------------|
B|-----------------------------------------------------------------------|
G|-7-7-77-------------------55555555-------5-----------------------------|
D|-7-7-77----55---3-3-3-----55555555--33---5---2-3-----------------------|x2
A|-5-5-55-00-55-0-3-3-3-0h3-33333333--33-0-3-0---------------------------|
D|-0-0-00-00-55-0-3-3-3-0h3-----------33-0-------------------------------|
.. . .


[Bridge] x2 (Clean)

Guitar 1
e|-1-11111-0-3-33333-0-0-00000-0-0-00000-0-0-00000-0-3-33333-0-------------|
B|-3-33333-0-3-33333-0-1-11111-0-0-00000-0-1-11111-0-3-33333-0-------------|
G|-2-22222-0-0-00000-0-0-00000-0-1-11111-0-2-22222-0-0-00000-0-------------|
D|-0-00000-0-0-00000-0-2-22222-0-0-00000-0-2-22222-0-0-00000-0-------------|
A|-----------2-22222---3-33333---2-22222---0-00000---2-22222---------------|
D|-------------------------------------------------------------------------|

e|-1-1111111-11111-0-------------------------------------------------------|
B|-1-1111111-11111-0-------------------------------------------------------|
G|-0-0000000-00000-0-------------------------------------------------------|
D|-3-3333333-33333-0-------------------------------------------------------|
A|-3-3333333-33333---------------------------------------------------------|
D|-------------------------------------------------------------------------|

Guitar 2
e|1------1-(1)-----------3-(3)---------------0------------------0----------|
B|--3---------3--------0-------0-----------3---3----------3-(3)---3--------|
G|----2---------2--0h2-------------------0-------0------1------------------|
D|-------------------------------------2--------------0--------------------|
A|-------------------------------0-2-3--------------2----------------------|
D|-------------------------------------------------------------------------|

e|-----------------------------------------------------1-------------------|
B|-------0-(0)------------0-(0)------------1-(1)-------1-------------------|
G|-----5-------5--------5-------5--------0-------0-----0-let ring----------|
D|---2-----------2----2-----------2----3-----------3---3-------------------|
A|-0---------------------------------3---------------3---------------------|
D|------------------5------------------------------------------------------|


[Outro]

Guitar 1
e|-------------------------------------------------------------------------|
B|-------------------------------------------------------------------------|
G|---------7-------------4-7-4-----------4-5-4-----------------------------|
D|-----7-----7---7-5---5-------5-3-2---5-------5-----------6-----6---------|
A|-5-8---8-----8-----5---------------3-----------7-7-5-8-7---7-9-----------|
D|-------------------------------------------------------------------------|

Guitar 2
e|-------------------------------------------------------------------------|
B|---------6---------------6---------------5-------------------------------|
G|-------7---7---7-4---4-7---7-4---------7---7-4---------------------------|
D|-7---7-------7-----5-----------7-5---5---------5-5-3-7-6-9-6-7-9---------|
A|---8-------------------------------7-------------------------------------|
D|-------------------------------------------------------------------------|

End with this 1st time, then repeat
Guitar 1 outro. End with this 2nd time
e|------------------------------------|--------------------|---------------|
B|------------------------------------|--------------------|---------------|
G|------------------------------------|--------------------|---------------|
D|-7--------7----------------5---5-7--|--------------------|-3~~~~---------|
A|---7--------7--------2-5-2---2------|/8-8-8/7-7/5-5/3-3/7|---------------|
D|-----10-7-----10-7-5----------------|--------------------|---------------|

Guitar 2 SEE GUITAR 3's notes above!
e|----------------------------------------|--------------------|-----------|
B|----------------------------------------|--------------------|-----------|
G|-----------------------------4---4-5----|--------------------|-----------|
D|-10-7------10-7----------5-----5-----/7-|/7-7-7/5-5/3-3/2-2/5|-7~~~~-----|
A|------7---------7----2-5---5------------|--------------------|-----------|
D|--------10--------10--------------------|--------------------|-----------|


**************************************

| / slide up
| \ slide down
| h hammer-on
| p pull-off
| ~ vibrato
| + harmonic
| x Mute note

**************************************
Tunning: Drop D (D A D G B E)
HEY THIS IS BAT COUNTRY BY AVENGED SEVENFOLD.
THIS SONG IS PLAYED IN DROP D TUNING.
THIS SONG HAS ABOUT A HARD DIFFICULTY LEVEL.
THIS SONG WAS TABBED BY BRAD RUNEVITCH.



[Intro] (with distortion)
E|---------------------------------------|
B|---------------------------------------|
G|---------------------------------------|
D|-7------6-----0------------------------|
A|-5-x4---6-x3--0-x4---5-3-5-6-5-3-0-----| x2
D|-0------6-----0------5-3-5-6-5-3-0-----|

Intro 2 (without distortion)
E|----------------------------------------|
B|----------------------------------------|
G|----------------------------------------|
D|-7-------6-----0------------------------|
A|-5-x4----6-x3--0-x4--5-3-5-6-5-3-0------| x2
D|-0-------6-----0-----5-3-5-6-5-3-0------|

Part 1
E|-----------------|
B|-----------------|
G|-----------------|
D|-7---6---5---3---| x2
A|-5---6---5---3---|
D|-0---6---5---3---|

Part 2 (strum up and down)
E|------------------------------------------------------|
B|------------------------------------------------------|
G|------------------------------------------------------|
D|------------------------------------------------------|
A|-55555555---------------------------------------------|
D|-------------6666666666-0000000000000000--------------| x2

Play this the last time
E|-------------------------------------------------------------------------|
B|-------------------------------------------------------------------------|
G|-------------------------------------------------------------------------|
D|-------------------------------------------------------33333333-22222222-|
A|-55555555-------------------44444444-55555555-77777777-33333333-22222222-|
D|----------66666666-55555555----------------------------33333333-22222222-|

[Chorus] (Part 3)
E|--------------------------------------------------|
B|--------------------------------------------------|
G|--------------------------------------------------|
D|-7-----xx--5-5-x-3-----5-----3-----x-5----2h3-----|
A|-5-x4--xx--5-5-x-3-x4--3-x8--3-x2--x-3------------| x2
D|-0-----xx--5-5-x-3-----------3-----x--------------|

Part 4
E|------------------------------------------------------|
B|------------------------------------------------------|
G|------------------------------------------------------|
D|------------------------------------------------------|
A|-55555555---------------------------------------------|
D|-------------6666666666-0000000000000000--------------| x4

Play this the last time (the 5th time)
E|-------------------------------------------------------------------------|
B|-------------------------------------------------------------------------|
G|-------------------------------------------------------------------------|
D|-------------------------------------------------------33333333-22222222-|
A|-55555555-------------------44444444-55555555-77777777-33333333-22222222-|
D|----------66666666-55555555----------------------------33333333-22222222-|


[Chorus] (Part 5)
E|--------------------------------------------------|
B|--------------------------------------------------|
G|--------------------------------------------------|
D|-7-----xx--5-5-x-3-----5-----3-----x-5----2h3-----|
A|-5-x4--xx--5-5-x-3-x4--3-x8--3-x2--x-3------------| x2
D|-0-----xx--5-5-x-3-----------3-----x--------------|


Part 6 (Guitar 1 = Synyster)
E|-----1-------------------------------------------------1----------|
B|---3--3-3-----3--------1--------0--------1--------3----1----1---1-|
G|--2-2--2----0--0-0---0--0-0---1--1-1---2--2-2---0--0-0-0--0--0-0--|
D|-0---------0-0--0---2-2--2---0-0--0---2-2--2---0-0--0--3-3-3--3---| x2
A|----------2--------3--------2--------0--------2--------3----------|
D|------------------------------------------------------------------|

Part 6 (Guitar 2 = Zacky)
E|-1-----3-----0-----0-----0-----3-----1------|
B|-3-----3-----1-----0-----1-----3-----1------|
G|-2-x7--0-x7--0-x7--1-x7--2-x7--0-x7--0-x12--|
D|-0-----0-----2-----0-----2-----0-----3------| x2
A|-------2-----3-----2-----0-----2-----3------|
D|--------------------------------------------|

Part 7 (before solo)
E|-----------------|
B|-----------------|
G|-----------------|
D|-7---6---5---3---| x4
A|-5---6---5---3---|
D|-0---6---5---3---|

Part 8 (solo - first guitar = Synyster)
E|-----------------------------------------------------------------|
B|-15-----10-----9----------------10h13-16~~~----------------------|
G|-17b~--12b~---11b~---10h11h12h13---------------------------------|
D|-------------------12--------------------------------------------|
A|-----------------------------------------------------------------|
D|----------------------------------------------0-DWWB-(DIVE BOMB)-|

E|---------------------------------------------------------------|
B|-----------6~-------------8~-----------10~-13b-13-<19>13p12p10-|
G|-7p5h7p5h7----5-7p5h7p5h7----7p5h7p5h7-------------------------|
D|---------------------------------------------------------------|
A|---------------------------------------------------------------|
D|---------------------------------------------------------------|

---------------------17~-18-17-16-13-10-13-10-18-17-16-------------------|
-<21>15-<21>15p14h15--------------------------------------------14141414-|
-------------------------------------------------------13131313----------|
-------------------------------------------------------------------------|
-------------------------------------------------------------------------|
-------------------------------------------------------------------------|
-------------------------------------------------------------------------|

(the notes right next to each other, strum up and down because its really fast)
E|-------15h17-10--------13--------12----15-------171817161718171617x8-12~-|
B|-15b---------------------101010----999---141414--------------------------|
G|-----15--------101010----------------------------------------------------|
D|-------------------------------------------------------------------------|
A|-------------------------------------------------------------------------|
D|-------------------------------------------------------------------------|

E|-101112131211101112131211-121314151413121314151413--------------------------|
B|----------------------------------------------------------------------------|
G|----------------------------------------------------------------------------|
D|----------------------------------------------------------------------------|
A|----------------------------------------------------------------------------|
D|----------------------------------------------------------------------------|

E|-141516171615141516171615-1718211817-------------171821b-|
B|------------------------------------18171820-------------|
G|---------------------------------------------------------|
D|---------------------------------------------------------| (end of solo)
A|---------------------------------------------------------|
D|---------------------------------------------------------|

Part 9 (guitar duette - or 1st guitar with harmonizer)
E|-17-13----------13-17-13----------13-16-12----------12-16-12----------12-|
B|------15------15--------15------15--------14------14--------14------14---|
G|--------14--14------------14--14------------13--13------------13--13-----|
D|----------15----------------15----------------14----------------14-------|
A|-------------------------------------------------------------------------|
D|-------------------------------------------------------------------------|

E|-10~-10-12-13-20-18-17-18-17-13-15-12-13-15-18-17-9-10-12-17-13-10-12-13-20-|
B|----------------------------------------------------------------------------|
G|----------------------------------------------------------------------------|
D|----------------------------------------------------------------------------|
A|----------------------------------------------------------------------------|
D|----------------------------------------------------------------------------|

E|-18-17-18-17-13-15-12-13-15-18-17-9-10-12-17-13~~-18-15~~-|
B|----------------------------------------------------------|
G|----------------------------------------------------------|
D|----------------------------------------------------------|
A|----------------------------------------------------------|
D|----------------------------------------------------------|

E|-17181715171817151718171517181715171817151718171517201715---15------|
B|---------------------------------------------------------18---17h18-|
G|--------------------------------------------------------------------|
D|--------------------------------------------------------------------|
A|--------------------------------------------------------------------|
D|--------------------------------------------------------------------|

(2nd guitar part for solo and duette = Zacky)
E|-------------------|
B|-------------------|
G|-------------------|
D|-7---6---5---------| x2 (this is the part before the dive bomb)
A|-5---6---5---------|
D|-0---6---5--0-QS---|

E|------------------------------------------------------|
B|------------------------------------------------------|
G|------------------------------------------------------|
D|---------------------------------------3-4-5-6-6-6----|
A|-55555555------------------------------3-4-5-6-6-6----| x4
D|-------------66666666-00000000---------3-4-5-6-6-6----|

Play this the last time (the 5th time)
E|-------------------------------------------------------------------------|
B|-------------------------------------------------------------------------|
G|-------------------------------------------------------------------------|
D|-------------------------------------------------------33333333-22222222-|
A|-55555555-------------------44444444-55555555-77777777-33333333-22222222-|
D|----------66666666-55555555----------------------------33333333-22222222-|

(now either the 2nd guitarist[Zacky]joins the duette or does this)
E|-----------------------------------------|
B|-----------------------------------------|
G|-----------------------------------------|
D|------0-------5---------5-------2------2-| x2
A|------0-------5----3333-3--0000-0-4444-4-|
D|-0000-0--5555-5--------------------------|

E|--------------------------------------|
B|--------------------------------------|
G|--------------------------------------|
D|-0--3-2-0--2--5-3-2-7-5-3-2-8-7-12-11-| (end of 2nd guitar part)
A|-0--3-2-0--2--5-3-2-7-5-3-2-8-7-12-11-|
D|-0--3-2-0--2--5-3-2-7-5-3-2-8-7-12-11-|

Part 10 (after the solo and duette)
E|------------------------------------------------------|
B|------------------------------------------------------|
G|------------------------------------------------------|
D|------------------------------------------------------| x4
A|-55555555---------------------------------------------|
D|-------------6666666666-0000000000000000--------------|

Part 11 (when he starts singing the thing that he speaks at the beginning)
(when it says x32, it means strum up and down 32 times, or 16 beats)
E|-------------------------------------------------------------|
B|-------------------------------------------------------------|
G|-------------------------------------------------------------|
D|-0-2-3-----5-----5-------0---2-3-----5-----3-----2-----6-----|
A|-0-2-3-x16-3-x16-5-x14---0---2-3-x16-3-x16-1-x32-0-x16-4-x16-|
D|-0-2-3-----------5-------0---2-3-----------------------------|

Chorus (part 12)
E|-------------------------------------------|
B|-------------------------------------------|
G|-------------------------------------------|
D|-7-----xx--5-x-3-----5-----3----x-5----2h3-| x2
A|-5-x4--xx--5-x-3-x4--3-x8--3-x2-x-3-x2-----|
D|-0-----xx--5-x-3-----------3----x----------|

Part 13 (Guitar 1 = Synyster)
E|-----1-------------------------------------------------1----------|
B|---3--3-3-----3--------1--------0--------1--------3----1----1---1-|
G|--2-2--2----0--0-0---0--0-0---1--1-1---2--2-2---0--0-0-0--0--0-0--|
D|-0---------0-0--0---2-2--2---0-0--0---2-2--2---0-0--0--3-3-3--3---| x4
A|----------2--------3--------2--------0--------2--------3----------|
D|------------------------------------------------------------------|

Part 13 (Guitar 2 = Zacky)
E|-1-----3-----0-----0-----0-----3-----1------|
B|-3-----3-----1-----0-----1-----3-----1------|
G|-2-x7--0-x7--0-x7--1-x7--2-x7--0-x7--0-x12--|
D|-0-----0-----2-----0-----2-----0-----3------| x4 (OR TILL THE END OF THE SONG)
A|-------2-----3-----2-----0-----2-----3------|
D|--------------------------------------------|

(: OK THAT IS THE END OF THE SONG BAT COUNTRY. ONCE YOU LISTEN TO THE SONG AND PLAY THE
THAT I JUST MADE, U WILL FIND THAT THEY ARE RIGHT. I LEARNED THIS FAIRLY QUICKLY SO I
U HSOULD TOO! GOOD LUCK!!! :)



************************************

b = bend up
< > = tap the number inbetween
x = palm mute
DWWB = Dive With Whammy Bar (dive bomb)
p = pull off
h = hammer on
prf = Play Really Fast
QS = quick stop with palm (needed)

************************************
Tunning: Standard (E A D G B e)
-------------------------------------------------------------------------------
Bat Country - Avenged Sevenfold
-------------------------------------------------------------------------------
Tabbed by: [travis]




***December 28, 2009: R.I.P. Jimmy "The R.E.V." Sullivan. You will be missed.









*This is the official tab for Bat Country. The solo is not included in this tab,
but check out the other tab I put up on this site labeled "Bat Country," where
it is only the complete solo tab.


Tuning: Distorted Guitars= D A D G B E (low to high) [Guitars 1 and 2]
Acoustic Guitars= E A D G B E (low to high) [Guitars 3 and 4]
Electric Guitars= E A D G B E (low to high) [Guitars 5 and 6]
Clean Guitars= E A D G B E (low to high) [Guitar 7]

Legend:
...=palm-muted
b= bend
[ ]= note the bend should sound like.
x= muted string
/\= slides
h= hammer on
p= pull-off
*=pinch harmonic
nh= harmonic
w= push the wammy bar down and up in a fast motion.
dv= dive with wammy bar slow.
db= dive bomb fast.
pw= pull the wammy bar up slow.
~~= vibrato.

+++++++++++++++++++++++++++++++++++++++++++++++++++++++++++++++++++++++++++++++
Intro:

Guitar 1:
e|---------------------------------------------------------------------------|
B|---------------------------------------------------------------------------|
G|-12nh-(pw)--------------------------(12)~~~~~~-----------------------------|
D|---------------------------------------------------------------------------|
A|---------------------------------------------------------------------------|
D|---------------------------------------------------------------------------|


Guitar 2:
e|---------------------------------------------------------------------------|
B|---------------------------------------------------------------------------|
G|-7-7---7-7-----------------------------------------------------------------|
D|-7-7---7-7-6-6--6-0---0----0-----------------------------------------------|
A|-5-5---5-5-6-6--6-0---0----0--5-3-5-6-5-3-0--------------------------------|
D|-----------6-6--6-0---0----0--5-3-5-6-5-3-0--------------------------------|
+Play
with little distortion.+
+Then
1 joins in, and play it 2 more
times
heavy distortion.

+++++++++++++++++++++++++++++++++++++++++++++++++++++++++++++++++++++++++++++++
Verse:

Guitars 1 and 2:
e|------------------------------------------------|
B|------------------------------------------------|
G|-7-----------------7----------------------------|
D|-7--6---5----3-----7--6---5---3-----------------|
A|-5--6---5----3-----5--6---5---3-----------------|
D|----6---5----3--------6---5---3-----------------|

+++++++++++++++++++++++++++++++++++++++++++++++++++++++++++++++++++++++++++++++
Verse 2:

Guitars 1 and 2:
e|---------------------------------------------------------------------------|
B|---------------------------------------------------------------------------|
G|---------------------------------------------------------------------------|
D|---------------------------------------------------------------------------|
A|-55555555--------------------------55555555--------------------------------|
D|---------66666666-0000000000000000---------66666666-0000000000000000-------|
................ ................

+++++++++++++++++++++++++++++++++++++++++++++++++++++++++++++++++++++++++++++++
Verse 3:

Guitars 1 and 2:
e|---------------------------------------------------------------------------|
B|---------------------------------------------------------------------------|
G|---------------------------------------------------------------------------|
D|---------------------------------------------------------------------------|
A|-55555555-----------------44444444-55555555-77777777-----------------------|
D|---------66666666-55555555--------------------------33333333-22222222------|

+++++++++++++++++++++++++++++++++++++++++++++++++++++++++++++++++++++++++++++++
Pre-Chorus:

Guitars 1 and 2:
e|---------------------------------------------------------------------------|
B|---------------------------------------------------------------------------|
G|-7---7---7-7------------------------5--5--5--5--x-----------5--------------|
D|-7---7---7-7-------5-5-----3--------5--5--5--5--x--3--3-----5----0--2-3/---|
A|-5---5---5-5--0-0--5-5--0--3--------3--3--3--3--x--3--3--0--3----0---------|
D|--------------0-0--5-5--0--3---0-0-----------------3--3--0-----------------|
. . . . . .
+Play this
in all.+
+++++++++++++++++++++++++++++++++++++++++++++++++++++++++++++++++++++++++++++++

Guitars 1 and 2 play "Verse 2" Twice, then they play "Verse 3" once.

+++++++++++++++++++++++++++++++++++++++++++++++++++++++++++++++++++++++++++++++

Guitars 1 and 2 play "Pre Chorus" twice.

+++++++++++++++++++++++++++++++++++++++++++++++++++++++++++++++++++++++++++++++
Chorus 1:

Guitar 3 (Acoustic):
"So sorry You're not here...I've been sane too long my..."
e|-1-------1-----------3------------------0--------------0------------------|
B|--3-------3--------0-----0------------3---3---------3----------1-----1----|
G|---2-------2-----2------------------0-------0-----1------0--------4----2--|
D|----3-----------------------------2------------0--------------------------|
A|---------------------------0-2--3--------------2-----------0-2------------|
E|---------------3----------------------------------------------------------|


Guitar 4 (Acoustic):
Play this with Guitar 3:

Dm G C E7 Am
e|-1-1-1-1--1--x-x--3-3-3-3--3--x-x--0-0-0-0--0--x-x--0-0-0-0--0--x-x--0-0-0-0--0--x-x--|
B|-3-3-3-3--3--x-x--0-0-0-0--0--x-x--1-1-1-1--1--x-x--0-0-0-0--0--x-x--1-1-1-1--1--x-x--|
G|-2-2-2-2--2--x-x--0-0-0-0--0--x-x--0-0-0-0--0--x-x--1-1-1-1--1--x-x--2-2-2-2--2--x-x--|
D|-0-0-0-0--0--x-x--0-0-0-0--0--x-x--2-2-2-2--2--x-x--0-0-0-0--0--x-x--2-2-2-2--2--x-x--|
A|-x-x-x-x--x--x-x--2-2-2-2--2--x-x--3-3-3-3--3--x-x--2-2-2-2--2--x-x--0-0-0-0--0--x-x--|
E|-x-x-x-x--x--x-x--3-3-3-3--3--x-x--x-x-x-x--x--x-x--0-0-0-0--0--x-x--x-x-x-x--x--x-x--|

+++++++++++++++++++++++++++++++++++++++++++++++++++++++++++++++++++++++++++++++
Chorus 2:

Guitar 3 (Acoustic):
"...vision's so unclear...(Oo)..."
e|------------------------------------------------------------|
B|-----1-----1---0--------1--------------1--------------------|
G|-------4--------------0-----0----------0--------------------|
D|---2---------2------3----------3-------3--------------------|
A|------------------------------------------------------------|
E|-3----------------1---------------1-------------------------|


Guitar 4 (Acoustic):
Play this with Guitar 3:
G F
e|-3-3-3-3--3--x-x--1-1-1-1--1--1-1--1-1-1-1--1--x-x-------|
B|-0-0-0-0--0--x-x--1-1-1-1--1--1-1--1-1-1-1--1--x-x-------|
G|-0-0-0-0--0--x-x--2-2-2-2--2--2-2--2-2-2-2--2--x-x-------|
D|-0-0-0-0--0--x-x--3-3-3-3--3--3-3--3-3-3-3--3--x-x-------|
A|-2-2-2-2--2--x-x--3-3-3-3--3--3-3--3-3-3-3--3--x-x-------|
E|-3-3-3-3--3--x-x--1-1-1-1--1--1-1--1-1-1-1--1--x-x-------|

++++++++++++++++++++++++++++++++++++++++++++++++++++++++++++++++++++++++++++++++
Chorus 3:

Guitar 3 (Acoustic):
"Now,... take a trip with me,... but don't..."
e|-1-----1--------------3------------------0---------------0--------|
B|---3------3---------0----0-------------3--------------3-----------|
G|------------------2------------------0-----0--------1------1p0----|
D|-----3-------3---------------------2---------2----0---------------|
A|---------------------------0--2--3--------------2-----------------|
E|---------------3--------------------------------------------------|

Guitar 4 plays his part from Chorus 1 and Chorus 2.

+++++++++++++++++++++++++++++++++++++++++++++++++++++++++++++++++++++++++++++++
Chorus 4:

Guitar 3 (Acoustic):
"...be surprised when things aren't what they seem...."
e|-----------------------------------------------------------------|
B|-----1----1--------1----1----1-------1------1----------1---------|
G|-------4-------------4---------0-------0------0--------0---------|
D|---2--------2----2--------2------3-------3------3------3---------|
A|-0---------------------------------3-------3------3--------------|
E|---------------3-------------------------------------------------|

Guitar 4 is still finishing the riffs from Chorus 1 and 2, on this part.

+++++++++++++++++++++++++++++++++++++++++++++++++++++++++++++++++++++++++++++++
Guitars 1 and 2 are going to play "Verse 1" twice now.
+++++++++++++++++++++++++++++++++++++++++++++++++++++++++++++++++++++++++++++++

Guitars do soloing, and dueling.
(Check my other tab for the complete solos and duelings, on this site.)

+++++++++++++++++++++++++++++++++++++++++++++++++++++++++++++++++++++++++++++++
After Solos:

Guitars 1 and 2:
"Sometimes I don't know why we'd rather live than die. We look up t'wards the sky for..."
e|-----------------------------------------------------------------------------------
B|-----------------------------------------------------------------------------------
G|-----------------------------------------------------------------------------------
D|-----------------------------------------------------------------------------------
A|-55555555------------------------55555555-------------------------55555555---------
D|---------66666666-000000000000000--------66666666-0000000000000000--------66666666-
............... ................
+++++++++++++++++++++++++++++++++++++++++++++++++++++++++++++++++++++++++++++++
------------------|
------------------|
------------------|
------------------|
------------------|
0000000000000000--|

Guitars 1 and 2:
"...want your absolution, 'cause I can't make it right..."
e|---------------------------------------------------------------------------|
B|---------------------------------------------------------------------------|
G|---------------------------------------------------------------------------|+The (18)
that you
D|------------------------(18)-----------0--2--------------------------------| play the
18 times.
A|-55555555------------------------------0--2--------------------------------|
D|---------66666666-000000000000000000---0--2--------------------------------|
..................
+++++++++++++++++++++++++++++++++++++++++++++++++++++++++++++++++++++++++++++++

Guitars 1 and 2:
"I'll make a beast out of myself..."
e|---------------------------------------------------------------|
B|---------------------------------------------------------------|
G|----------------------------5--5--5-5-5-5-5--5-5---------------|
D|-3--3---3-3---3-3-3-3--3-3--5--5--5-5-5-5-5--5-5---5-----------|
A|-3--3---3-3---3-3-3-3--3-3--3--3--3-3-3-3-3--3-3---5-----------|
D|-3--3---3-3---3-3-3-3--3-3-------------------------5-----------|

+++++++++++++++++++++++++++++++++++++++++++++++++++++++++++++++++++++++++++++++

Guitars 1 and 2:
"Yeah............Gets rid of...."
e|---------------------------------------------------------------------------|
B|---------------------------------------------------------------------------|
G|---------------------------------------------------------------------------|
D|-(5)-5--5-5--5-5-5-5--5-0--------------------2--3-3--3-3--3-3-3-3--3-3-----|
A|-(5)-5--5-5--5-5-5-5--5-0--------------------2--3-3--3-3--3-3-3-3--3-3-----|
D|-(5)-5--5-5--5-5-5-5--5-0-------0-0-0-0-0-0--2--3-3--3-3--3-3-3-3--3-3-----|
...........

+++++++++++++++++++++++++++++++++++++++++++++++++++++++++++++++++++++++++++++++

Guitars 1 and 2:
"...all the pain of bein' a...."
e|---------------------------------------------------------------------------|
B|---------------------------------------------------------------------------|
G|-5-5--5-5--5-5-5-5--5-5\3-3--3-3--3-3-3-3--3-3-3-3-3-3-3-3-3-3-3-3---------|
D|-5-5--5-5--5-5-5-5--5-5\3-3--3-3--3-3-3-3--3-3-3-3-3-3-3-3-3-3-3-3---------|
A|-3-3--3-3--3-3-3-3--3-3\1-1--1-1--1-1-1-1--1-1-1-1-1-1-1-1-1-1-1-1---------|
D|---------------------------------------------------------------------------|

+++++++++++++++++++++++++++++++++++++++++++++++++++++++++++++++++++++++++++++++

Guitars 1 and 2:
"....man__________________________"
e|---------------------------------------------------------------------------|
B|---------------------------------------------------------------------------|
G|-2-2--2-2--2-2-2-2---2-2---2-2---2-2--2-2-2-2-2-2--------------------------|
D|-2-2--2-2--2-2-2-2---2-2---2-2---2-2--2-2-2-2-2-2--------------------------|
A|-0-0--0-0--0-0-0-0---0-0---4-4---4-4--4-4-4-4-4-4--------------------------|
D|---------------------------------------------------------------------------|

+++++++++++++++++++++++++++++++++++++++++++++++++++++++++++++++++++++++++++++++

Guitars 1 and 2 play the "Pre-Chorus" twice.

+++++++++++++++++++++++++++++++++++++++++++++++++++++++++++++++++++++++++++++++
Out Chorus:

Guitar 3 (acoustic):
"So sorry you're not here..."
e|-------1------------3----------------|
B|-----3---3--------0------0-----------|
G|---2-------2----2------4-------------|
D|-0-----------------------------------|
A|-------------------------------------|
E|-------------3-----------------------|

Guitar 4 (acoustic) is going to play Chorus 1 and 2 one time, and play both of them again.
Guitar 4 is playing them over Guitar 3.

++++++++++++++++++++++++++++++++++++++++++++++++++++++++++++++++++++++++++++++++
Out Chorus 1A:

Guitar 3:
".............I've been sane too long, my...."
e|---------0----------------0--------------------------|
B|-------3---3----------3-----------------1-------1----|
G|-----0-------0-----1---------1p0-----------4---------|
D|---2------------0--------------------2-------------2-|
A|-3--------------2------------------0-----------------|
E|-----------------------------------------------------|


Guitar 3:
"..vision's so unclear.......(oooo....)..."
e|-------------------------------------1------------------|
B|------1------1--------------1-------------1------1------|
G|---------4---------------0------0------------0-----0----|
D|---2------------2-----3-----------3---------------------|
A|--------------------------------------------------------|
E|-3-----------------1------------------------------------|


Guitar 3:
"Now....take a trip with me.......but don't...."
e|-1--------1---------------3-----------0--------------0------|
B|---3--------3-------0---------------3---3---------3---------|
G|-----2--------2-------2p0---------0-------0-----1-------1p0-|
D|-------0--------3----------------------------0--------------|
A|----------------------------0-2-3------------2--------------|
E|------------------3-----------------------------------------|

Guitar 3:
"be surprised when things aren't what they seem...."
e|--------------------------------------------------1-------1------|
B|------1-----1---------1------1-----------1----------------1------|
G|---------4---------------4-------------0-----0-------0h2-------0-|
D|---2-----------2----2----------2-----3---------3-----------------|
A|-0---------------------------------------------------------------|
E|------------------3---------------1------------------------------|

++++++++++++++++++++++++++++++++++++++++++++++++++++++++++++++++++++++++++++++++
Guitar 3 is going to play "Out Chorus," and "Out Chorus 1a" one more time while the
distortion comes in:
++++++++++++++++++++++++++++++++++++++++++++++++++++++++++++++++++++++++++++++++
Outro 1a:

Guitar 5:
"I've.......known it from the start......all these...:
e|--------------------------------------------------------------------|
B|----------6----------------6---------------5------------------------|
G|-----7------7---7-4----4-7---7-4-------4-7---7-4-----------4-----4/-|
D|---7---7------7------5-----------7-5-------------5-5---7\6---6-7----|
A|-8-----------------------------------7---------------8--------------|
E|--------------------------------------------------------------------|
. . .

Guitar 6:
e|-----------------------------------------------------------------|
B|-----------------------------------------------------------------|
G|---------7--------------7-------------4-5-4----------------------|
D|-----7----7---7-5---5-9---9-5-------5-------5-----------6---4-6/-|
A|-5-8---8----8-----5-----------8-7-------------7-7-5-8\7---7------|
E|----------------------------------8------------------------------|
. . .

Guitar 4:
Dm G C E7
e|-1-1-1-1h1-1--1--3--3-3-3h3--3-3--0-0-0-0h0-0--0--0-0-0-0h0--0-0--|
B|-3-3-3-3h3-3--3--0--0-0-0h0--0-0--1-1-1-1h1-1--1--0-0-0-0h0--0-0--|
G|-2-2-2-2h2-2--2--0--0-0-0h0--0-0--0-0-0-0h0-0--0--1-1-1-1h1--1-1--|
D|-0-0-0-0h0-0--0--0--0-0-0h0--0-0--2-2-2-2h2-2--2--0-0-0-0h0--0-0--|
A|-x-x-x-x-x-x--x--2--2-2-2h2--2-2--3-3-3-3h3-3--3--2-2-2-2h2--2-2--|
E|-x-x-x-x-x-x--x--3--3-3-3h3--3-3--x-x-x-x-x-x--x--0-0-0-0h0--0-0--|

+++++++++++++++++++++++++++++++++++++++++++++++++++++++++++++++++++++++++++++++++
Outro 1b:

Guitar 5:
"...good ideas will tear your brain apart......(oooooo___)..."
e|------------------------------------------------------------------------|
B|------------------------------------------------------------------------|
G|-/5----5----------------4---4/5-----------------------------------------|
D|----7----7----------5-----5-----7---------------7p\5--5p\3---3-2-2-3h/5-|
A|-----7-----7------5---5-------------------------------------------------|
E|------8------8--7-------------------------------------------------------|
. .

Guitar 6:
e|------------------------------------------------------------------------|
B|------------------------------------------------------------------------|
G|------------------------------------------------------------------------|
D|-/7-----7----------------5---5-7----------------3--2--2-----------------|
A|---7------7----------5-----5-----3----------------------5--5--3--3-5h/7-|
E|----8-5-----8-5--3-7---7------------------------------------------------|
. . .

Guitar 4:
Am G F
e|-0-0-0-0h0--0--0---3-3-3-3h3-3--3---1-1-1-1h1--1-1-1~-------------------|
B|-1-1-1-1h1--1--1---0-0-0-0h0-0--0---1-1-1-1h1--1-1-1~-------------------|
G|-2-2-2-2h2--2--2---0-0-0-0h0-0--0---2-2-2-2h2--2-2-2~-------------------|
D|-2-2-2-2h2--2--2---0-0-0-0h0-0--0---3-3-3-3h3--3-3-3~-------------------|
A|-0-0-0-0h0--0--0---2-2-2-2h2-2--2---3-3-3-3h3--3-3-3~-------------------|
E|-x-x-x-x-x--x--x---3-3-3-3h3-3--3---1-1-1-1h1--1-1-1~-------------------|

+++++++++++++++++++++++++++++++++++++++++++++++++++++++++++++++++++++++++++++++++
Outro 1c:

"Scared... but you can follow me.....I'm too....."

+Guitar 4 plays the riff in "Outro 1a." one more time.
+Guitar 5 and 6 play their riff from "Outro 1a," one more time.

+++++++++++++++++++++++++++++++++++++++++++++++++++++++++++++++++++++++++++++++++
Outro 1d:

Guitar 5:
"....weird to live but much too rare to die......"
e|-------------------------------------------------|
B|-------------------------------------------------|
G|-/5-------5----------------4----4/5----2~~~~~~~--|
D|----7-------7----------5-----5---------3~~~~~~~--|
A|------7-------7------5---5-------------3~~~~~~~--|
E|--------8-------8--7-------------------3~~~~~~~--|
. . .

Guitar 6:
e|--------------------------------------------------------------|
B|--------------------------------------------------------------|
G|--------------------------------------------------------------|
D|-/7-------7-----------------5----5--7--3~~~~~~---(3)feedback--|
A|----7-------7----------5------5-------------------------------|
E|------8-5-----8-5--3-7---7------------------------------------|
. . .
Guitar 4:
Am G F
e|-0-0-0-0h0--0--x-x----3-3-3-3h-3~-----------1~~~~------|
B|-1-1-1-1h1--1--x-x----0-0-0-0h-0~-----------1~~~~------|
G|-2-2-2-2h2--2--x-x----0-0-0-0h-0~-----------2~~~~------|
D|-2-2-2-2h2--2--x-x----0-0-0-0h-0~-----------3~~~~------|
A|-0-0-0-0h0--0--x-x----2-2-2-2h-2~-----------3~~~~------|
E|-x-x-x-x-x--x--x-x----3-3-3-3h-3~-----------1~~~~------|

Guitar 7:
e|---------------------------------------------|
B|-----1----1----------1--------1---------1----|
G|-------4----------------4---------------0----|
D|---2--------2-----2--------------2------3----|
A|-0-------------------------------------------|
E|----------------3----------------------------|

*There you have it. Make sure to check out the solo tab for this song on this site, that
posted. Enjoy it.*
Oh, and please rate it.
Tunning: Drop D (D A D G B E)
Avenged Sevenfold - Bat Country
_______________________________
Lead Guitar Part:
_________________

recommended: acoustic pedal

Email:anony.mous@gmx.de


Legend:
++++++++++++++++++++++++++++++++++++++++++
+ * Upstroke +
+ __ Let Ring +
+ ~~ Vibrato +
+ b Bend +
+ (5) Death Note +
+ # Hold this note and bend 13 +
+ / Slide Up +
+ \ Slide Down +
++++++++++++++++++++++++++++++++++++++++++






* * * Intro * * *
E|--------------------------------------------------------------------------|
B|--------------------------------------------------------------------------|
G|-7-7-77-----------------------------7-7-77--------------------------------|
D|-7-7-55-6-6-66-0-0-00---------------7-7-77-6-6-66-0-0-00------------------|
A|-5-5-55-6-6-66-0-0-00---------------5-5-55-6-6-66-0-0-00------------------|
D|--------6-6-66-0-0-00-5-3-5-6-5-3-0--------6-6-66-0-0-00-5-3-5-6-5-3-0----|

_____ _____
|---------------------------------------------------------------------------|
|---------------------------------------------------------------------------|
|---7----------------------------7------------------------------------------|
|---7------6------5------3-------7------6------5------3---------------------|
|---5------6------5------3-------5------6------5------3---------------------|
|----------6------5------3--------------6------5------3---------------------|
Pre-Chorus
|---------------------------------------------------------------------------|
|---------------------------------------------------------------------------|
|---------------------------------------------------------------------------|
|---------------------------------------------------------------------------|
|---55555555---------------------55555555-----------------------------------|
|------------66666666-00000000------------66666666-00000000-----------------|

|---------------------------------------------------------------------------|
|---------------------------------------------------------------------------|
|---------------------------------------------------------------------------|
|---------------------------------------------------------------------------|
|55555555-------------------44444444-55555555-77777777----------------------|
|---------66666666-55555555----------------------------33333333-22222222----|
Chorus
*
|---------------------------------------------------------------------------|
|---------------------------------------------------------------------------|
|---7----7---7-7---------------7-7-7-77-7-7-7---------7--0-2-3\-------------|
|---7----7---7-7-0-0-5-5-0-3---7-7-7-77-7-7-7---3-3-0-7---------------------|
|---5----5---5-5-0-0-5-5-0-3---7-7-7-77-7-7-7---3-3-0-5---------------------|
|----------------0-0-5-5-0-3--------------------3-3-0-----------------------|
*
|---------------------------------------------------------------------------|
|---------------------------------------------------------------------------|
|---7----7---7-7---------------7-7-7-77-7-7-7---------7--0-2-3\-------------|
|---7----7---7-7-0-0-5-5-0-3---7-7-7-77-7-7-7---3-3-0-7---------------------|
|---5----5---5-5-0-0-5-5-0-3---7-7-7-77-7-7-7---3-3-0-5---------------------|
|----------------0-0-5-5-0-3--------------------3-3-0-----------------------|
Pre-Chorus
|---------------------------------------------------------------------------|
|---------------------------------------------------------------------------|
|---------------------------------------------------------------------------|
|---------------------------------------------------------------------------|
|---55555555---------------------55555555-----------------------------------|
|------------66666666-00000000------------66666666-00000000-----------------|

|---------------------------------------------------------------------------|
|---------------------------------------------------------------------------|
|---------------------------------------------------------------------------|
|---------------------------------------------------------------------------|
|---55555555---------------------55555555-----------------------------------|
|------------66666666-00000000------------66666666-00000000-----------------|

|---------------------------------------------------------------------------|
|---------------------------------------------------------------------------|
|---------------------------------------------------------------------------|
|---------------------------------------------------------------------------|
|55555555-------------------44444444-55555555-77777777----------------------|
|---------66666666-55555555----------------------------33333333-22222222----|
Chorus
*
|---------------------------------------------------------------------------|
|---------------------------------------------------------------------------|
|---7----7---7-7---------------7-7-7-77-7-7-7---------7--0-2-3\-------------|
|---7----7---7-7-0-0-5-5-0-3---7-7-7-77-7-7-7---3-3-0-7---------------------|
|---5----5---5-5-0-0-5-5-0-3---7-7-7-77-7-7-7---3-3-0-5---------------------|
|----------------0-0-5-5-0-3--------------------3-3-0-----------------------|
*
|---------------------------------------------------------------------------|
|---------------------------------------------------------------------------|
|---7----7---7-7---------------7-7-7-77-7-7-7---------7--0-2-3\-------------|
|---7----7---7-7-0-0-5-5-0-3---7-7-7-77-7-7-7---3-3-0-7---------------------|
|---5----5---5-5-0-0-5-5-0-3---7-7-7-77-7-7-7---3-3-0-5---------------------|
|----------------0-0-5-5-0-3--------------------3-3-0-----------------------|
clean Section
Dm G Cmaj E
|---------------------------------------------------------------------------|
|----------6---------------------------------5------------------------------|
|------7-----7---7----------7------------5-----5---5----------4-------------|
|----7---7-----7--------5-----5---5----5---5-----5--------2-----2---2-------|
|--5------------------5---5-----5----3------------------2---2-----2---------|
|-------------------5---------------------------------2---------------------|
A G F F
|---------------------------------------------------------------------------|
|---------------------------------------------------------------------------|
|----------9----------------7----------------5----------------5-------------|
|------7-----7---7------5-----5---5------3-----3---3------3-----3---3-------|
|----7---7-----7------5---5-----5------3---3-----3------3---3-----3---------|
|--7----------------5----------------3----------------3---------------------|
Dm G Cmaj E
|---------------------------------------------------------------------------|
|----------6---------------------------------5------------------------------|
|------7-----7---7----------7------------5-----5---5----------4-------------|
|----7---7-----7--------5-----5---5----5---5-----5--------2-----2---2-------|
|--5------------------5---5-----5----3------------------2---2-----2---------|
|-------------------5---------------------------------2---------------------|
A G F F
|---------------------------------------------------------------------------|
|---------------------------------------------------------------------------|
|----------9----------------7----------------5----------------5-------------|
|------7-----7---7------5-----5---5------3-----3---3------3-----3---3-------|
|----7---7-----7------5---5-----5------3---3-----3------3---3-----3---------|
|--7----------------5----------------3----------------3---------------------|
Breakdown
_____ _____
|---------------------------------------------------------------------------|
|---------------------------------------------------------------------------|
|---7----------------------------7------------------------------------------|
|---7------6------5------3-------7------6------5------3---------------------|
|---5------6------5------3-------5------6------5------3---------------------|
|----------6------5------3--------------6------5------3---------------------|
_____ _____
|---------------------------------------------------------------------------|
|---------------------------------------------------------------------------|
|---7----------------------------7------------------------------------------|
|---7------6------5------3-------7------6------5------3---------------------|
|---5------6------5------3-------5------6------5------3---------------------|
|----------6------5------3--------------6------5------3---------------------|
Solo ~~
|---------------------------------------------------------------------------|
|---15b---9b---8b-----------------13-15b-(15)-(15)-(15)---12----------------|
|---17b--11b--10b--------12-13-14-------------------------------------------|
|-------------------12-15---------------------------------------------------|
|---------------------------------------------------------------------------|
|------------------------------------------------------------divebomb-------|
~~ ~~ ~~
|---------------------------------------------------------------------------|
|---------------------------------------------------------------------------|
|---5b-(5b)-(5b)-(5b)-7b--5b-(5b)-(5b)-(5b)-10b--5b-(5b)-(5b)-(5b)-15b------|
|---------------------------------------------------------------------------|
|---------------------------------------------------------------------------|
|---------------------------------------------------------------------------|
# ~~~~ # ~~~~
|-------------------------------------------------17-17b-16-15----15--------|
|---13b-------------------------------------------------------18----18------|
|-------10-13-10-13-19b-----10-13-10-13-22b---------------------------------|
|---------------------------------------------------------------------------|
|---------------------------------------------------------------------------|
|---------------------------------------------------------------------------|

|--/18-17-13----------------------------------------------------------------|
|---------------------13-13-13-18b------15-17b------------------------------|
|------------13-13-13---------------/13-------------------------------------|
|---------------------------------------------------------------------------|
|---------------------------------------------------------------------------|
|---------------------------------------------------------------------------|

|---10----------13----------12-------15-------------------------------------|
|------------------10-10-10----9-9-9----14-14-14----------------------------|
|------10-10-10-------------------------------------------------------------|
|---------------------------------------------------------------------------|
|---------------------------------------------------------------------------|
|---------------------------------------------------------------------------|

|--17-18-17-16-17-18-17-16-17-18-17-16-17-17-17-17-\12----------------------|
|---------------------------------------------------------------------------|
|---------------------------------------------------------------------------|
|---------------------------------------------------------------------------|
|---------------------------------------------------------------------------|
|---------------------------------------------------------------------------|

|-10-11-12-13-12-11-10-11-12-13-12-11-10------------------------------------|
|---------------------------------------------------------------------------|
|---------------------------------------------------------------------------|
|---------------------------------------------------------------------------|
|---------------------------------------------------------------------------|
|---------------------------------------------------------------------------|

|-12-13-14-15-14-13-12-13-14-15-14-13-12------------------------------------|
|---------------------------------------------------------------------------|
|---------------------------------------------------------------------------|
|---------------------------------------------------------------------------|
|---------------------------------------------------------------------------|
|---------------------------------------------------------------------------|

|-14-15-16-17-16-15-14-15-16-17-16-15-14-------------17-18-20b--------------|
|----------------------------------------18-17-18-20------------------------|
|---------------------------------------------------------------------------|
|---------------------------------------------------------------------------|
|---------------------------------------------------------------------------|
|---------------------------------------------------------------------------|
Duet-solo
|--17-13----------13-17-13----------13-16--------------16-------------------|
|-------15------15--------15------15-----17----------17--17----------17-----|
|---------14--14------------14--14---------16------16------16------16-------|
|-----------15----------------15-------------17--17----------17--17---------|
|----------------------------------------------19--------------19-----------|
|---------------------------------------------------------------------------|
~~
|-13-------------/17-15--13-15-13--10-12--8-10-8-10/17\13-------------------|
|-------------10------------------------------------------------------------|
|----10-10-12---------------------------------------------------------------|
|---------------------------------------------------------------------------|
|---------------------------------------------------------------------------|
|---------------------------------------------------------------------------|

|--------------/17-15--13-15-13--10-12--8-10-8-10--/17\13--/15\14-----------|
|------------10-------------------------------------------------------------|
|---10-10-12----------------------------------------------------------------|
|---------------------------------------------------------------------------|
|---------------------------------------------------------------------------|
|---------------------------------------------------------------------------|

|13-15-13-12-13-15-13-12-13-15-13-12-13-15-13-12--12--18-15-----------------|
|-----------------------------------------------15--15-----17-14--14-17-14--|
|---------------------------------------------------------------15----------|
|---------------------------------------------------------------------------|
|---------------------------------------------------------------------------|
|---------------------------------------------------------------------------|


|----------------------------------------------------17b--------------------|
|--10b-11b-12b-15b----9b----3b--------------14-15-17------------------------|
|--12b-13b-14b-17b---11b----5b-----13-14-16---------------------------------|
|---------------------------------------------------------------------------|
|---------------------------------------------------------------------------|
|---------------------------------------------------------------------------|

|---------------------------------------------------------------------------|
|----17b----13b----15b----10b----13b----10b---------------------------------|
|---------------------------------------------------------------------------|
|---------------------------------------------12b---------------------------|
|---------------------------------------------------------------------------|
|---------------------------------------------------------------------------|
2nd Breakdown _______
|---------------------------------------------------------------------------|
|---------------------------------------------------------------------------|
|----------------------5-5-5-5-5-5-5-5--------------------------------------|
|-0--2-3-3-3-3-3-3-3-3-5-5-5-5-5-5-5-5-5-5-5-5-5-5-5-5-0--------------------|
|-0--2-3-3-3-3-3-3-3-3-3-3-3-3-3-3-3-3-5-5-5-5-5-5-5-5-0--------------------|
|-0--2-3-3-3-3-3-3-3-3-----------------5-5-5-5-5-5-5-5-0--------------------|

|---------------------------------------------------------------------------|
|---------------------------------------------------------------------------|
|----------------------5-5-5-5-5-5-5-5-3-3-3-3-3-3-3-3----------------------|
|-0--2-3-3-3-3-3-3-3-3-5-5-5-5-5-5-5-5-3-3-3-3-3-3-3-3----------------------|
|-0--2-3-3-3-3-3-3-3-3-3-3-3-3-3-3-3-3-1-1-1-1-1-1-1-1----------------------|
|-0--2-3-3-3-3-3-3-3-3------------------------------------------------------|


----------------------------------------------------------------------------|
----------------------------------------------------------------------------|
-7-7-7-7-7-7-7-7-6-6-6-6-6-6-6-6--------------------------------------------|
-7-7-7-7-7-7-7-7-6-6-6-6-6-6-6-6--------------------------------------------|
-5-5-5-5-5-5-5-5-4-4-4-4-4-4-4-4--------------------------------------------|
----------------------------------------------------------------------------|

Chorus
*
|---------------------------------------------------------------------------|
|---------------------------------------------------------------------------|
|---7----7---7-7---------------7-7-7-77-7-7-7---------7--0-2-3\-------------|
|---7----7---7-7-0-0-5-5-0-3---7-7-7-77-7-7-7---3-3-0-7---------------------|
|---5----5---5-5-0-0-5-5-0-3---7-7-7-77-7-7-7---3-3-0-5---------------------|
|----------------0-0-5-5-0-3--------------------3-3-0-----------------------|
*
|---------------------------------------------------------------------------|
|---------------------------------------------------------------------------|
|---7----7---7-7---------------7-7-7-77-7-7-7---------7--0-2-3\-------------|
|---7----7---7-7-0-0-5-5-0-3---7-7-7-77-7-7-7---3-3-0-7---------------------|
|---5----5---5-5-0-0-5-5-0-3---7-7-7-77-7-7-7---3-3-0-5---------------------|
|----------------0-0-5-5-0-3--------------------3-3-0-----------------------|
clean Section
Dm G Cmaj E
|---------------------------------------------------------------------------|
|----------6---------------------------------5------------------------------|
|------7-----7---7----------7------------5-----5---5----------4-------------|
|----7---7-----7--------5-----5---5----5---5-----5--------2-----2---2-------|
|--5------------------5---5-----5----3------------------2---2-----2---------|
|-------------------5---------------------------------2---------------------|
A G F F
|---------------------------------------------------------------------------|
|---------------------------------------------------------------------------|
|----------9----------------7----------------5----------------5-------------|
|------7-----7---7------5-----5---5------3-----3---3------3-----3---3-------|
|----7---7-----7------5---5-----5------3---3-----3------3---3-----3---------|
|--7----------------5----------------3----------------3---------------------|
Dm G Cmaj E
|---------------------------------------------------------------------------|
|----------6---------------------------------5------------------------------|
|------7-----7---7----------7------------5-----5---5----------4-------------|
|----7---7-----7--------5-----5---5----5---5-----5--------2-----2---2-------|
|--5------------------5---5-----5----3------------------2---2-----2---------|
|-------------------5---------------------------------2---------------------|
A G F F
|---------------------------------------------------------------------------|
|---------------------------------------------------------------------------|
|----------9----------------7----------------5----------------5-------------|
|------7-----7---7------5-----5---5------3-----3---3------3-----3---3-------|
|----7---7-----7------5---5-----5------3---3-----3------3---3-----3---------|
|--7----------------5----------------3----------------3---------------------|
Outro
|---------------------------------------------------------------------------|
|---------------------------------------------------------------------------|
|--------7-------------4-7-4---------------4--------------------------------|
|-----7----7---7\5---5-------5\3-2---2-3-5---5-3-2--------------------------|
|-5-8---8----8-----5---------------3---------------3/7-5/8-7/10-8/12-10-----|
|---------------------------------------------------------------------------|

|---------------------------------------------------------------------------|
|---------------------------------------------------------------------------|
|---------5-----------------------------------------------------------------|
|-----2-----2---2------0---9-----------0---5-------/7-5-3-2-----------------|
|---0---0-----0------0---0---0---0---0---0---0---0--------------------------|
|-0----------------5-----------0---3-----------3----------------------------|

|---------------------------------------------------------------------------|
|---------------------------------------------------------------------------|
|--------7-------------4-7-4---------------4--------------------------------|
|-----7----7---7\5---5-------5\3-2---2-3-5---5-3-2--------------------------|
|-5-8---8----8-----5---------------3---------------3/7-5/8-7/10-8/12-10-----|
|---------------------------------------------------------------------------|
~~~~~~~~~~~~~~~~~~
|---------------------------------------------------------------------------|
|---------------------------------------------------------------------------|
|---------5-----------------------------------------------------------------|
|-----2-----2---2------0---9-----------0---5/7------------------------------|
|---0---0-----0------0---0---0---0---0---0----------------------------------|
|-0----------------5-----------0---3----------------------------------------|




enjoy and keep in practice!(:
Tunning: Standard (E A D G B e)
100% using hearing method.
Instrumental originally by Eric Draven.
Vocal by M.Shadows
A7X-Bat Country Acoustic Version!
Tabbed by Cassius Mike


Intro:
e|--------------------------------------------------------------------------|
b|-------------6-----6-6-6/9-8-6-------------6-----6-6-6/9-6-5--------------|
g|-7-55-7-55-7---5/8-------------7-55-7-55-7---5/8--------------------------|
d|--------------------------------------------------------------------------|
a|--------------------------------------------------------------------------|
D|--------------------------------------------------------------------------|


Pre Verse:
e|--------------------------------------------------------------------------|
b|--------------------------------------------------------------------------|
g|-7~--5~-------------7~--5~------------5-----5-----------------------------|
d|--------7~--5~--5h7--------5~--3h5/7-----7--------------------------------|
a|--------------------------------------------------------------------------|
D|--------------------------------------------------------------------------|


Verse 1: X2
e|--------------------------------------------------------------------------|
b|-------------6------------------------------------------------------------|
g|-7-55-7-55-7---7-5-----7-5------------------------------------------------|
d|-------------------7-6-----7-6--------------------------------------------|
a|-------------------------------8------------------------------------------|
D|--------------------------------------------------------------------------|


Pre Chorus:
e|--------------------------------------------------------------------------|
b|-----5-6-8-5-6-----5-6-8-6-8-10-10-10-10-11-11-11-11-13-13-13-13-11-10-8-6|
g|-5-7-----------5-7--------------------------------------------------------|
d|--------------------------------------------------------------------------|
a|--------------------------------------------------------------------------|
D|--------------------------------------------------------------------------|


Chorus:
e|--------------------------------------------------------------------------|
b|-----6-5h6p5-----6/8-8-8-6-6-6p5------------------------------------------|
g|-7-7---------5-7-----------------5-5-555-5-----5/6-6-6-5---5h6p5----------|
d|-------------------------------------------567-----------5-------5--------|
a|--------------------------------------------------------------------------|
D|--------------------------------------------------------------------------|

e|--------------------------------------------------------------------------|
b|-----6-5h6p5-----6/8-8-8-6-6-6p5------------------------------------------|
g|-7-7---------5-7-----------------5-5-555-5-----5/6-6-6-5---5--------------|
d|-------------------------------------------567-----------5---5------------|
a|--------------------------------------------------------------------------|
D|--------------------------------------------------------------------------|


Verse 2 X3|
e|-----------------------------------|--------------------------------------|
b|-------------6---------------------|--------6-8-8/10-10-10-9-8-6----------|
g|-7-55-7-55-7---7-5-----7-5---------|-7-55-7----------------------7--------|
d|-------------------7-6-----76------|-----------------------------------57-|
a|------------------------------875--|-------------------------------567----|
D|-----------------------------------|--------------------------------------|


Pre Chorus:
e|--------------------------------------------------------------------------|
b|-----5-6-8-5-6-----5-6-8-6-8-10-10-10-10-11-11-11-11-13-13-13-13-11-10-8-6|
g|-5-7-----------5-7--------------------------------------------------------|
d|--------------------------------------------------------------------------|
a|--------------------------------------------------------------------------|
D|--------------------------------------------------------------------------|


Chorus:
e|--------------------------------------------------------------------------|
b|-----6-5h6p5-----6/8-8-8-6-6-6p5------------------------------------------|
g|-7-7---------5-7-----------------5-5-555-5-----5/6-6-6-5---5h6p5----------|
d|-------------------------------------------567-----------5-------5--------|
a|--------------------------------------------------------------------------|
D|--------------------------------------------------------------------------|

e|--------------------------------------------------------------------------|
b|-----6-5h6p5-----6/8-8-8-6-6-6p5------------------------------------------|
g|-7-7---------5-7-----------------5-5-555-5-----5/6-6-6-5---5--------------|
d|-------------------------------------------567-----------5---5------------|
a|--------------------------------------------------------------------------|
D|--------------------------------------------------------------------------|


Interlude:
e|-5-------5-------------------------------0---------------7----------------|
b|-6-------------6-------8-------------------------------5---5--------------|
g|---7-7-7-----7-----5-7---7-5---5-----0-----0---------7-------7------------|
d|-----------7-----5-----------5-----2---2-----2-----6-----------6----------|
a|---------------------------------3-------------3-7------------------------|
D|--------------------------------------------------------------------------|

e|---------5---------------3---------0-----0-----3-----3---3----------------|
b|-----5-----5---------3-----3---------1-----1-----1-----1---1--------------|
g|---5---5-----5-----4---4-----4---------------------2---------2------------|
d|-7-------------7-5-------------5-3-----3-----3----------------------------|
a|--------------------------------------------------------------------------|
D|--------------------------------------------------------------------------|

e|-5-------5-------------------------------0---------------7----------------|
b|-6-------------6-------8-------------------------------5---5--------------|
g|---7-7-7-----7-----5-7---7-5---5-----0-----0---------7-------7------------|
d|-----------7-----5-----------5-----2---2-----2-----6-----------6----------|
a|---------------------------------3-------------3-7------------------------|
D|--------------------------------------------------------------------------|

e|---------5---------------3---------------0-------00000000-----------------|
b|-----5-----5---------3-----3---------1-----1-----11111111-----------------|
g|---5---5-----5-----4---4-----4-----2---2-----2---22222222-----------------|
d|-7-------------7-5-------------5-3-------------3-33333333-----------------|
a|--------------------------------------------------------------------------|
D|--------------------------------------------------------------------------|


Pre Solo:
e|-----------------------8--------------------------------------------------|
b|-------6-6/8-6-8/10-10---10--8-6-5----------------------------------------|
g|-5/7-7-----------------------------7-5-7-7p5-----------5---5--------------|
d|---------------------------------------------5-3h5-5/7---7----------------|
a|--------------------------------------------------------------------------|
D|--------------------------------------------------------------------------|

e|-----------------------8--------------------------------------------------|
b|-------6-6/8-6-8/10-10---10--8-6-5-------6-8-6-8/10-8-6-5-5h6p5-----------|
g|-5/7-7-----------------------------5/7-7------------------------7-5-------|
d|--------------------------------------------------------------------------|
a|--------------------------------------------------------------------------|
D|--------------------------------------------------------------------------|

e|-----------------------10-8-------------------------8-10-10bv--10-8-------|
b|---6---6-8-6-8-10-8-0-------10-8---------6-8-6-8/10-----------------10-9--|
g|-7---7---------------------------10--7-7----------------------------------|
d|--------------------------------------------------------------------------|
a|--------------------------------------------------------------------------|
D|--------------------------------------------------------------------------|


Solo:
e|-----------------------------------------------8----8-10-12---------------|
b|-----------6---------6-6/9-8-6------6-8-6-8/10---10-----------------------|
g|-7-5-7-5-7---5-7-5-7-----------5/7~---------------------------------------|
d|--------------------------------------------------------------------------|
a|--------------------------------------------------------------------------|
D|--------------------------------------------------------------------------|

Moderate fast alternate picking!
e|-13-12-10-12-10-8---------------------------------------------------------|
b|------------------10------------------------------------------------------|
g|---------------------12-10----12-10-12-13--12-10-12-10--------------------|
d|---------------------------12--------------------------12-----------------|
a|--------------------------------------------------------------------------|
D|--------------------------------------------------------------------------|

e|--------------10-8-10-1010101010101010-8888-------------------------------|
b|-----6-868/10-------------------------------88888888----------------------|
g|-5/7-------------------------------------------------7-5----7-5---75------|
d|---------------------------------------------------------7-5---7-6--76----|
a|----------------------------------------------------------------------875-|
D|--------------------------------------------------------------------------|

e|--------------------------------------------------------------------------|
b|--------------8-10-12-131313-151515---------------------------------------|
g|-----868-8/10------------------------------8---6--------------------------|
d|-567-----------------------------------------9---7-7-77-9-9-99999-5---5---|
a|--------------------------------------------------------------------5-----|
D|--------------------------------------------------------------------------|

e|---------------5-6-666-66-5-6-5h6p5------------------5h6-5----------------|
b|-----------5-6----------------------6-8-888-88-5-6-5-------5-6-8----------|
g|-7-------7----------------------------------------------------------------|
d|---7---7------------------------------------------------------------------|
a|-----8--------------------------------------------------------------------|
D|--------------------------------------------------------------------------|

e|-------------5-6-666-66-5-6-5h6p5------------------5/6-5------------------|
b|-6-------5-6----------------------6-8-888-88-5-6-5-------5-6-8-6-----5-6--|
g|---7---7---------------------------------------------------------7-7------|
d|-----7--------------------------------------------------------------------|
a|--------------------------------------------------------------------------|
D|--------------------------------------------------------------------------|

e|----------------5h6p5-5h6p5-5h6p5-5h6p5-5h6p6-----------------------------|
b|-5-6------------------------------------------865---------5---------------|
g|-----8-8-888-8------------------------------------76---67---6-7-----------|
d|-----------------------------------------------------7--------------------|
a|--------------------------------------------------------------------------|
D|--------------------------------------------------------------------------|


Verse 3: (Follow the song's stumming) X2
e|--------------------------------------------------------------------------|
b|--------------------------------------------------------------------------|
g|-7--------------------------------7---------------------------------------|
d|-7----------6----------0----------7----------6----------0-----------------|
a|-5----------6----------0----------5----------6----------0-----------------|
D|------------6----------0---------------------6----------0-----------------|

e|--------------------------------------------------------------------------|
b|--------------------------------------------------------------------------|
g|-------------------5---------------------7~-------------------------------|
d|-0-2-3--3----------5----------5----------7~----------0--2--3--3-----------|
a|-0-2-3--3----------3----------5----------5~----------0--2--3--3-----------|
D|-0-2-3--3---------------------5----------------------0--2--3--3-----------|

e|--------------------------------------------------------------------------|
b|--------------------------------------------------------------------------|
g|-5----------3----------0-------0------------------------------------------|
d|-5----------3----------2-------2------------------------------------------|
a|-3----------1----------0-------4------------------------------------------|
D|--------------------------------------------------------------------------|


Chorus:
e|--------------------------------------------------------------------------|
b|-----6-5h6p5-----6/8-8-8-6-6-6p5------------------------------------------|
g|-7-7---------5-7-----------------5-5-555-5-----5/6-6-6-5---5h6p5----------|
d|-------------------------------------------567-----------5-------5--------|
a|--------------------------------------------------------------------------|
D|--------------------------------------------------------------------------|

e|--------------------------------------------------------------------------|
b|-----6-5h6p5-----6/8-8-8-6-6-6p5------------------------------------------|
g|-7-7---------5-7-----------------5-5-555-5-----5/6-6-6-5---5--------------|
d|-------------------------------------------567-----------5---5------------|
a|--------------------------------------------------------------------------|
D|--------------------------------------------------------------------------|


Interlude:
e|-5-------5-------------------------------0---------------7----------------|
b|-6-------------6-------8-------------------------------5---5--------------|
g|---7-7-7-----7-----5-7---7-5---5-----0-----0---------7-------7------------|
d|-----------7-----5-----------5-----2---2-----2-----6-----------6----------|
a|---------------------------------3-------------3-7------------------------|
D|--------------------------------------------------------------------------|

e|---------5---------------3---------0-----0-----3-----3---3----------------|
b|-----5-----5---------3-----3---------1-----1-----1-----1---1--------------|
g|---5---5-----5-----4---4-----4---------------------2---------2------------|
d|-7-------------7-5-------------5-3-----3-----3----------------------------|
a|--------------------------------------------------------------------------|
D|--------------------------------------------------------------------------|

e|-5-------5-------------------------------0---------------7----------------|
b|-6-------------6-------8-------------------------------5---5--------------|
g|---7-7-7-----7-----5-7---7-5---5-----0-----0---------7-------7------------|
d|-----------7-----5-----------5-----2---2-----2-----6-----------6----------|
a|---------------------------------3-------------3-7------------------------|
D|--------------------------------------------------------------------------|

e|---------5---------------3---------------0-------00000000-----------------|
b|-----5-----5---------3-----3---------1-----1-----11111111-----------------|
g|---5---5-----5-----4---4-----4-----2---2-----2---22222222-----------------|
d|-7-------------7-5-------------5-3-------------3-33333333-----------------|
a|--------------------------------------------------------------------------|
D|--------------------------------------------------------------------------|

(Follow the song's strumming) X2
e|-1--------3--------X--------X--------0---------3--------0-----------------|
b|-3--------3--------1--------X--------1---------3--------1-----------------|
g|-2--------0--------0--------1--------2---------0--------2-----------------|
d|-0--------0--------2--------2--------2---------0--------3-----------------|
a|-X--------2--------3--------2--------X---------2--------3-----------------|
D|-X--------X--------X--------X--------X---------X--------X-----------------|
Song info
Bat Country
Avenged Sevenfold
2001
  • Rock
  • Heavy Metal
Alternative tracks
Similar songs
Warmness On The Soul - Avenged Sevenfold
Dont Need You - Bullet for My Valentine
Flying High Again - Ozzy Osbourne
Death Knell - Ghost

Hi! Hope you enjoy backing track experience.
If you want to help us in the development of the project, feel free to donate!