Feel Like Makin Love - Bad Company
00:00 / 00:00
Tabs and lyrics
Tunning: Standard (E A D G B e)
Feel like making love
by Bad Company
tabbed by jonathan warren

[Intro]

v v ^ v ^ v ^ v ^ v v v v ^ v ^ v ^ v ^ v v
e|--14-14--12-12-12-12--7-7-7-7h8-7-|-14-14--12-12-12-12--7-7-7-7h8--2-|
B|--15-15--13-13-13-13--8-8-8-8---8-|-15-15--13-13-13-13--8-8-8-8----3-|
G|--14-14--12-12-12-12--7-7-7-7---7-|-14-14--12-12-12-12--7-7-7-7----2-|
D|----------------------------------|----------------------------------|
A|----------------------------------|----------------------------------|
E|----------------------------------|----------------------------------|


[Verse]

D G D G
baby, when i think about you, i think about looooooove
D G D G
darlin, when i live without you, i live with out looooooove
D G D G
if i have those golden dreams, of my yesterdaaaaaaaaaaaaaaaaay

i would wrap you in the heavens, till i'm dying on the way


[Chorus]

repeat three times
e|------------------------------------------|
B|------------------------------------------|
G|-----------------------------------------o|
D|-5--7---7----5--7---7----5--7---7--------o|
A|-3--5---5----3--5---5----3--5---5----5-3--|
E|-------------------------------------3-1--|
feel like making love

e|--------------------------------------------|
B|--------------------------------------------|
G|--------------------------------------------|
D|-----------5--7-----------7-----------------|
A|-----------3--5---5----3--5-----------------|
E|------------------3----1--------------------|
feel like making love to you


[Verse]

baby, if i think about you, i think about looooooooooove

darling, if i live without you, i live without loooooove

and if i had it, the sun and moon and they were shining shining
shining

i would give you both night and day, feel love satisfyyyyyying


[Chorus]


[Verse]

e|----------------------------------------------------------------|
B|----------------------------------------------------------------|
G|--------2-0-------0-4---2h4p2-0----------2-0------0-4--2h4p2-0--|
D|-4--2h4-0-0---2h4-0-0---0-----0---4--2h4-0-0--2h4---0--0-----0--|
A|-5--------------------------------5-----------------------------|
E|----------------------------------------------------------------|


[Verse]

and if i had those golden dreams, of my yesterdaaaaaayyy

i would wrap you in the heavens, fell thier dying on the waaaay


[Chorus]
(played under solo)


[Solo]

e|-16b-14----------------16b-14----------------16b-16b-16b-14----------|
B|--------15-------15-15--------15-------15-15----------------15-------|
G|-----------14h15-----------------14h15-------------------------14-15-|
D|---------------------------------------------------------------------|
A|---------------------------------------------------------------------|
E|---------------------------------------------------------------------|

e|-------14-16-15-------------16b-14----------------|
B|-15-15----------------14-15--------15-------15-15-|
G|----------------14-15-----------------14h15-------|
D|--------------------------------------------------|
A|--------------------------------------------------|
E|--------------------------------------------------|



************************************

| h Hammer-on
| p Pull-off
| b Bend
| v strum down
| ^ strum up

************************************
Tunning: Standard (E A D G B e)
[-------10-------10---x--x--8--8----8--8----x--x---7----7--7b8----7---7---7]
[-------10-------10---x--x--8--8----8--8----x--x---8----8--8------8---8---8]
[-------11-------11---x--x--9--9----9--9----x--x---7----7--7------7---7---7]
[-------0------------------------------------------0-----------------------]
[--------------------------------------------------------------------------]
[--------------------------------------------------------------------------]

[-------10-------10---x--x--8--8----8--8----x--x---7----7--7b8----7----2---]
[-------10-------10---x--x--8--8----8--8----x--x---8----8--8------8----3---]
[-------11-------11---x--x--9--9----9--9----x--x---7----7--7------7----2---]
[-------0------------------------------------------0-----------------------]
[--------------------------------------------------------------------------]
[--------------------------------------------------------------------------]

[--------------2------------------------3--3----3-----------33--33----3----]
[-------------------3-------3----3------3--3----3-----------33--33----3----]
[----------2------------------2---------0--0----0---------0-----------0----]
[-----0--------------------------------------------------------------------]
[------------------------------------3---------------0b2----------0b2------]
[---------------------------------------------3--------------------------3-]

[-----------------------------------3--3-----------3---------------3--3----]
[--------------3----3--3------3-----3--3--------3-----------3------3--3----]
[---------0b2-------------2---------0--0--------0------------------0--0----]
[-----0--------------------------------------0---------------------------0-]
[--------------------------------3----------------------------0b2----------]
[-----------------------------------------3--------------------------------]

chorus:
repeat this part three times
[------------------------3-------------------------------------------------]
[---------------------------------3---------------3--------------3---------]
[-------------------------------------------------2--------------2---------]
[-----------------0-------------------------0-----0---------0----0---------]
[----------2-----------------------------3---------------3-----------------]
[---3----------------------------------------------------------------------]

[------------------3------3-|--------------------3------3-----3------------]
[-----------3------3------3-|------------3-------3------3-----3------------]
[-----------2------0------0-|------------2-------0------0-----0------------]
[------0----0------2------x-|-------0----0-------2------2-----x---------0--]
[---3--------------3------2-|----3---------------3------3-----2---------0--]
[---------------------------|-------------------------------------3b----0--]

ok.that's it,except for the solo.I might put the solo on there but not right
now.thats the right way to play this song,so..rock on!!!oh and i skipped part
of the verse cause it's just d,c,and g5 in that order,so you can figure it out.
Tunning: Standard (E A D G B e)
Song: Feel Like Making Love
Artist: Bad Company
Album: STRAIGHT SHOOTER (1975)
Tunning: Standard
Tabbed By: INDIE NATION


Music by Paul Rodgers & Mick Ralphs

E A D G b e
D: x x 0 2 3 2
C: x 3 2 0 1 0
G5: 3 x 0 0 3 3

Gtr I - Rhythm Steel String Acoustic
Gtr II - Rhythm Clean Electric
Gtr III - Rhythm w/distortion
Gtr IV - Lead Clean Electric (2 gtrs arr. for 1)
Gtr V - Lead Clean Electric
Gtr VI - Lead w/distortion & Delay


Intro:

4/4
Gtr I

|-10--10-x-x-8-8-8-8-x-x-|-7--7-7h8-7-(7)-7--7---|
|-10--10-x-x-8-8-8-8-x-x-|-8--8---8-8-(8)-8--8---|
|-11--11-x-x-9-9-9-9-x-x-|-7--7---7-7-(7)-7--7---|
|--0---------------------|-0---------------------|
|------------------------|-----------------------|
|------------------------|-----------------------|


|-10--10-x-x-8-8-8-8-x-x-|-7-7h8-7-2-(2)----||
|-10--10-x-x-8-8-8-8-x-x-|-8---8-8-3-(3)----||
|-11--11-x-x-9-9-9-9-x-x-|-7---7-7-2-(2)----||
|--0---------------------|-0----------------||
|------------------------|------------------||
|------------------------|------------------||


Verses:

Gtr II
D C G5 C

Gtr I
||------2------------------3-3-|---3---------3-3-----3-----|
||o--------3---(3)-3---3---3-3-|---3---------3-3-----3-----|
||----2--------------2-----0-0-|---0-----0-----------0-----|
||--0--------------------------|---------------------------|
||o----------------------3-----|-----0h2---------0h2---3---|
||-----------------------------|-3-------------------------|
|-Rhy Fig 1 (both Gtrs)

D C G5 C x3 then
|----------------------3-3-|--------3---(3)-------3-3------||
|--------3---3-3---3---3-3-|-----3----------3-----3-3-----o||
|----0h2---------2-----0-0-|-----0----------------0-0------||
|-0------------------3-----|---0----------------------0----||
|--------------------------|------------------0h2---------o||
|--------------------------|-3-----------------------------||
end Rhy Fig 1-|


G5
|---------3---(3)--------------||
|-----------------3----(3)-----||
|------------------------------||
|------0-----------------------||
|----2-------------------------||
|--3---------------------------||
|-Rhy Fill 1 (both Gtrs)

Chorus:

Gtr III
PM| PM| PM| x3 PM| PM|
||--------------------|----------3--3---||--------------------|
||o-------3--------3--|-------3--3--3--o||-------3--------3---|
||--------2--------2--|-------2--0--0---||-------2--------2---|
||----0---0----0---0--|---0---0--2------||---0---0----0---0---|
||o-3--------3--------|-3--------3--2--o||-3--------3---------|
||--------------------|-----------------||--------------------|
|-Rhy Fig 2 (includes repeats)

D.S.
2/4 4/4
PM|
|----------|-3--3--3---------|----------|------------||
|-------3--|-3--3--3---------|----------|------------||
|-------2--|-0--0--0---------|----------|------------||
|---0---0--|-2--2------------|-0--------|-(0)--------||
|-3--------|-3--3--2---------|-0--------|-(0)--------||
|----------|----------3b3.5--|-0--------|-(0)--------||
end Rhy Fig 2-|


Interlude:

w/Rhy Fig 1 x2
Gtr IV

||----------------------------------|-------------------------------|
||o---------------------------------|-8----------------------7-8----|
||--7------------------------7--7---|------------------------7-7h9--|
||--7-----------------------12-14---|-9-----------------------------|
||o---------------------------------|-------------------------------|
||----------------------------------|-------------------------------|
|
|
| Gtr V
|
||----------------------------------|-------------------------------|
||o---------------------------------|-------------------------------|
||----------------------------------|--------------------------7----|
||------------------------------7---|-5--------------------7s9------|
||o-5---------------------7s=9------|-------------------------------|
||----------------------------------|-------------------------------|



|----------------------------------|
|-/12-------------------10h12p10---|
|--11--------------------9---------|
|----------------------------------|
|----------------------------------|
|----------------------------------|
|
|
|
|----------------------------------|
|----------------------------------|
|---7------------------------------|
|-----------------------10---------|
|----------------------------------|
|----------------------------------|


1. 2.
|-------------------------------||-------------------------------||
|-8----------------------------o||--8----------------------------||
|-7-----------------------------||--7----------------------------||
|-------------------------------||-------------------------------||
|------------------------------o||-------------------------------||
|-------------------------------||-------------------------------||
|
|
|
|-------------------------------||-------------------------------||
|------------------------------o||-------------------------------||
|-------------------------------||--7----------------------------||
|-9-----------------------------||-------------------------------||
|------------------------------o||-------------------------------||
|-------------------------------||-------------------------------||


Verse:

Gtr II
D C G5 C

Gtr I
||------2------------------3-3-|---3---------3-3-----3-----|
||o--------3---(3)-3---3---3-3-|---3---------3-3-----3-----|
||----2--------------2-----0-0-|---0-----0-----------0-----|
||--0--------------------------|---------------------------|
||o----------------------3-----|-----0h2---------0h2---3---|
||-----------------------------|-3-------------------------|
|-Rhy Fig 1 (both Gtrs)

D C G5 C x3 then
|----------------------3-3-|--------3---(3)-------3-3------||
|--------3---3-3---3---3-3-|-----3----------3-----3-3-----o||
|----0h2---------2-----0-0-|-----0----------------0-0------||
|-0------------------3-----|---0----------------------0----||
|--------------------------|------------------0h2---------o||
|--------------------------|-3-----------------------------||
end Rhy Fig 1-|


G5
|---------3---(3)--------------||
|-----------------3----(3)-----||
|------------------------------||
|------0-----------------------||
|----2-------------------------||
|--3---------------------------||
|-Rhy Fill 1 (both Gtrs)


Outro Guitar Solo:

W/Rhy Fig 2 till end

Gtr VI
~~~~~~~~~~~
|-------15b17==(15)r--13--------------|----------------|
|------------------------15----(15)\--|----------------|
|-------------------------------------|----------------|
|-------------------------------------|----------------|
|-------------------------------------|----------------|
|-------------------------------------|----------------|


~~~~
|------------------10---------------------------------------|
|-----13b15==(13)r----13b15==(13)r-13b15==(13)---(13)r\-----|
|-----------------------------------------------------------|
|-----------------------------------------------------------|
|-----------------------------------------------------------|
|-----------------------------------------------------------|


2/4 4/4
~~~
|----------|-----------------|-------15b17==(15)r--13---------------|
|----------|-----------------|------------------------15\-----------|
|----------|-----------------|--------------------------------------|
|----------|-----------------|--------------------------------10h12-|
|----------|-----------------|--------------------------------------|
|----------|-----------------|--------------------------------------|


~~~
|-----------------------------------------------------|
|-----------------------------------------------------|
|-10-12b14==(12)r(12)p10-12-12-10-12---------------10-|
|--------------------------------------------10h12----|
|------------------------------------8h10s12----------|
|-----------------------------------------------------|


~~~~
|--------------------------13----|
|-----------------------------15-|
|--------------------------------|
|-12---(12)\-/12\----------------|
|--------------------------------|
|--------------------------------|


|-----------13-----------|-15b17-r15-----15b17-r15--15b17-r15-----15b17-r15|
|-(15)\--------15--------|-------------------------------------------------|
|------------------------|-------------------------------------------------|
|------------------------|-------------------------------------------------|
|------------------------|-------------------------------------------------|
|------------------------|-------------------------------------------------|


~~~
|-13-15------------------|----------------------------------|
|-------15-(15)\---------|----------------------------------|
|------------------------|-------12b14==(12)r--10-12--------|
|------------------------|---------------------------12-----|
|------------------------|----------------------------------|
|------------------------|----------------------------------|


2/4 4/4
~~~~
|----------------------------|-----------------------------|
|----------------------------|-----------------------------|
|----------------------------|-----------------------------|
|-(12)---10h12---------------|---------------10s12---------|
|--------------12s10p8-10-10-|------8-10s12----------------|
|----------------------------|-8h10------------------------|


|------------------------------------------|
|--------------------------------------0-0-|
|-----10b10.5--------------10b10.5---------|
|-------------12-(12)\-------------12\-----|
|------------------------------------------|
|------------------------------------------|


|--------------------------------------------------|
|-----10b10.5----10-x-12-12-12-12b13==(12)r(12)-12-|
|-----10b10.5----10-x-12-12-12-12b13==(12)r(12)-12-|
|-------------12-----------------------------------|
|--------------------------------------------------|
|--------------------------------------------------|


PM------|
|-------------------------------------------|
|-------10b10.5----------------10b10.5------|
|-------10b10.5----------------10b10.5------|
|-10h12---------12-10-10---------------12---|
|------------------------12-12--------------|
|-------------------------------------------|


|-------10--------------------------------------------------------------|
|----12-10-------10-12-12-----------------------------------------------|
|----12-10h11----10-12-12-12b14==(12)r(12)b14==(12)r(12)-10----10-10-10-|
|-12----------12--------------------------------------------12----------|
|-----------------------------------------------------------------------|
|-----------------------------------------------------------------------|


|----------------------------------------------------|
|-------10s13-13-13-13-13-13-13-13-13-13-13-13-13-13-|
|-12p11-11s14-14-14-14-14-14-14-14-14-14-14-14-14-14-|
|----------------------------------------------------|
|----------------------------------------------------|
|----------------------------------------------------|


|-------------------13-15-15b17==(15)r(15)p13-15b17==(15)r---15b17==(15)r--|
|-13-13-13-13-13h15--------------------------------------------------------|
|-14-14-14-14--------------------------------------------------------------|
|--------------------------------------------------------------------------|
|--------------------------------------------------------------------------|
|--------------------------------------------------------------------------|


|-15b17r15--15b17r15-15b17r15-15b17r15-15b17r15--15b17r15-15-13-14-15-|
|---------------------------------------------------------------------|
|---------------------------------------------------------------------|
|---------------------------------------------------------------------|
|---------------------------------------------------------------------|
|---------------------------------------------------------------------|


2/4 4/4
~~
|-13-14-15-13-14-15-13-14-|-15-13----------------------------------10--|
|-------------------------|-------15---(15)\-----------10---10---------|
|-------------------------|--------------------12b14==(12)r------------|
|-------------------------|--------------------------------------------|
|-------------------------|--------------------------------------------|
|-------------------------|--------------------------------------------|


|-----------------------------------------------------------|
|---------10-------10----------9-------------9-------(9)\---|
|-12b14==(12)r--------11b13==(11)r--11b13==(11)-----(11)r\--|
|-----------------------------------------------------------|
|-----------------------------------------------------------|
|-----------------------------------------------------------|


|----------------------------15b17=(15)r-|-15b17=(15)r---13-15-------------|
|10--10-10-10-10-10-10-10-10-------------|------------15\-------15-15b18-15|
|10--10-10-10-10-10-10-10-10-------------|---------------------------------|
|----------------------------------------|---------------------------------|
|----------------------------------------|---------------------------------|
|----------------------------------------|---------------------------------|


|------3------| |------3------|
|------------------------------------------------------------------------|
|-(15)---15b18==(15)r(15)b18==(15)r(15)b18==(15)r(15)b18==(15)r(15)-15---|
|------------------------------------------------------------------------|
|------------------------------------------------------------------------|
|------------------------------------------------------------------------|
|------------------------------------------------------------------------|


|--------------------------------------------|
|-----10b10.5-------------------13-13-13-----|
|-----10b10.5----------10-11s14----------14\-|
|-------------12-10-12-----------------------|
|--------------------------------------------|
|--------------------------------------------|


|---3----|
|------------------------------------------------------------|
|------------------------------------------------------------|
|--------------------10-12b14==(12)r(12)p10-12---------------|
|--------------10-12---------------------------12-10h12------|
|------8-10s12------------------------------------10h12-10s9-|
|-8h10-------------------------------------------------------|


|------------------------------------------|
|------------------------------------------|
|------------------------------------------|
|------------------------------------------|
|------------------------------------------|
|---8-8h10-10-10-8h10-8h10-8h10-10-10-8-8--|


2/4 4/4
|----------------------|--------------------------------|
|----------------------|--------------------------------|
|----------------------|--------------------------------|
|----------------------|----10---10s12-12---------(12)s=|
|-----------------8-10s|=12-----------------------------|
|-8h10-10-10-8h10------|--------------------------------|


|--------15b17==(15)r--13---------------|
|------------------------------15-(15)--|
|---------------------------------------|
|-5/------------------------------------|
|---------------------------------------|
|---------------------------------------|


~~
|------15b17==(15)r---13-------------------------*|
|-(15)-------------------15p13\---------x-x-x-12-*|
|---------------------------------10----x-x-x-12-*|
|------------------------------------12----------*|
|------------------------------------------------*|
|------------------------------------------------*|
Song info
Feel Like Makin Love
Bad Company
2001
  • Rock
  • Classic Rock
  • Hard Rock
Alternative tracks
Similar songs
LA - Neil Young
So This Is Love - Van Halen
Living Loving Maid - Led Zeppelin
Cowboy Song - Thin Lizzy
Kings And Queens - Aerosmith

Hi! Hope you enjoy backing track experience.
If you want to help us in the development of the project, feel free to donate!