Infected - Bad Religion
00:00 / 00:00
Tabs and lyrics
Tunning: Standard (E A D G B e)
Hey, here's the guitar tab for "Infected" by Bad Religion
It's played with two guitars tuned down half a step ( the entire
"Stranger than Fiction" album is tuned to Eb )
Low to high : Eb Ab Db Gb Bb eb

Opening
(lead):

e|--------------------|
B|--------------------|
G|--/12~--------------|
D|---xx---------------|
A|--/10~--------------|
E|--------------------|

[Intro]
(lead):

e|-------------------------------------------------------------------|
B|-------------------------------------------------------------------|
G|--12--16-14-15-12--16-14-15-13-13-13-13-13-13--13-13-13-13-13-13---|
D|--xx--xx-xx-xx-xx--xx-xx-xx-xx-xx-xx-xx-xx-xx--xx-xx-xx-xx-xx-xx---|
A|--10--14-12-13-10--14-12-13-11-11-11-11-11-11--11-11-11-11-11-11---|
E|-------------------------------------------------------------------|
play the rhythm on the xx11x13x chord, go straight into verse

[Intro](x2)
(rhythm guitar):

e|--------------------------------------------------------------------|
B|--------------------------------------------------------------------|
G|----------------4-5-5-5-6-7-7-7-5---------------4-5-5-5-6-7-7-7-5---|
D|--7-7-7-2-3-3-3-4-5-5-5-6-7-7-7-5-7-7-7-2-3-3-3-4-5-5-5-6-7-7-7-5---|
A|--7-7-7-2-3-3-3-2-3-3-3-4-5-5-5-3-7-7-7-2-3-3-3-2-3-3-3-4-5-5-5-3---|
E|--5-5-5-0-1-1-1-------------------5-5-5-0-1-1-1---------------------|
PM . . . . . . . . . . . . . . . . . . . . . . . . . . . . . . . .

e|------------------------------------------------------------------|
B|------------------------------------------------------------------|
G|----------------4-5-5-5-6-7-7-7-5---------------4-5-5-5-4---------|
D|--7-7-7-2-3-3-3-4-5-5-5-6-7-7-7-5-7-7-7-2-3-3-3-4-5-5-5-4-5-5-5---|
A|--7-7-7-2-3-3-3-2-3-3-3-4-5-5-5-3-7-7-7-2-3-3-3-2-3-3-3-2-5-5-5---|
E|--5-5-5-0-1-1-1-------------------5-5-5-0-1-1-1-----------3-3-3---|
PM . . . . . . . . . . . . . . . . . . . . . . .

[Verse]
(both guitars):

e|-------------------------------------------------------------------|
B|-------------------------------------------------------------------|
G|----------------4-5-5-5-6-7-7-7-5---------------4-5-5-5-6-7-7-7-5--|
D|--7-7-7-2-3-3-3-4-5-5-5-6-7-7-7-5-7-7-7-2-3-3-3-4-5-5-5-6-7-7-7-5--|
A|--7-7-7-2-3-3-3-2-3-3-3-4-5-5-5-3-7-7-7-2-3-3-3-2-3-3-3-4-5-5-5-3--|
E|--5-5-5-0-1-1-1-------------------5-5-5-0-1-1-1--------------------|

e|------------------------------------------------------------------|
B|------------------------------------------------------------------|
G|----------------4-5-5-5-6-7-7-7-5---------------4-5-5-5-4---------|
D|--7-7-7-2-3-3-3-4-5-5-5-6-7-7-7-5-7-7-7-2-3-3-3-4-5-5-5-4-5-5-5---|
A|--7-7-7-2-3-3-3-2-3-3-3-4-5-5-5-3-7-7-7-2-3-3-3-2-3-3-3-2-5-5-5---|
E|--5-5-5-0-1-1-1-------------------5-5-5-0-1-1-1-----------3-3-3---|

[Pre-Chorus]

e|----------------------------------1-1-1-0-------1-1-1-0-------------|
B|----------------------------------1-1-1-0-------1-1-1-0-------------|
G|--------------------------2-2-2-0---------2-2-0---------------------|
D|--/-7-7-7-8-8--3-3-3-5-5--2-2-2-0---------2-2-0-----------7-7-7-8-8-|
A|--/-7-7-7-8-8--3-3-3-5-5----------------------------------7-7-7-8-8-|
E|--/-5-5-5-6-6--1-1-1-3-3----------------------------------5-5-5-6-6-|

e|----------------------------|
B|----------------------------|
G|----------------------------|
D|--3-3-3-4-4--4-4--4-4-4-----|
A|--3-3-3-4-4--4-4--4-4-4-----|
E|--1-1-1-2-2--2-2--2-2-2-----|
PM . . .

[Chorus](x2)

e|----------------------------------------------------------------|
B|----------------------------------------------------------------|
G|----------------5-5-5-------------------------------------------|
D|--7-7-7--3-3-3--5-5-5--5-5-5--7-7-7-8-8--3-3-3-5-5--------------|
A|--7-7-7--3-3-3--3-3-3--5-5-5--7-7-7-8-8--3-3-3-5-5--------------|
E|--5-5-5--1-1-1---------3-3-3--5-5-5-6-6--1-1-1-3-3--------------|

[End Chorus]

e|-------------------------------|
B|-------------------------------|
G|-------------------------------|
D|--7-7-7-7-7-7-7--7-7-7-7-7-7---|
A|--7-7-7-7-7-7-7--7-7-7-7-7-7---|
E|--5-5-5-5-5-5-5--5-5-5-5-5-5---|

[Bridge]

e|--------------------------------------------------------------------|
B|--------------------------------------------------------------------|
G|--------------------------------------------------------------------|
D|--------------------------------------------------------------------|
A|--2-2-0-----0-2-2-2-0-----0--2-2-0-----0-2-2-2-2-2-2-0--------------|
E|--------2-2-----------2-2----------2-2------------------2-2-0-3-2---|

e|-------------------------------------------------------------------|
B|-------------------------------------------------------------------|
G|-------------------------------------------------------------------|
D|-------------5-5-5-5-5-5-5--7-7-7-7-7-7-7-7------------------------|
A|-------------5-5-5-5-5-5-5--7-7-7-7-7-7-7-7------------------------|
E|--2-2-0-3-2--3-3-3-3-3-3-3--5-5-5-5-5-5-5-5------------------------|

[Solo]
(rhythm guitar) [Outro] (both guitars):

e|----------------------------| |---------|
B|----------------------------| |---------|
G|--4-4-5-5-------------------| |---------|
D|--4-4-5-5-5-5-7-7-----------| End on |--9~-----|
A|--2-2-3-3-5-5-7-7-----------| |--9~-----|
E|----------3-3-5-5-----------| |--7~-----|

[Solo]
(lead guitar):

Improvise on the eBG strings between the 12th & 15th frets

That's it, during the "yeah, yeah, yeah" part they play G-12-- on repeat
but they only do that live, on the album it's just the bass part.
For comments, e-mail me arno.bogaerts@pandora.be



************************************

| / Slide up
| ~ Vibrato
| x Dead note
| PM Palm mute

************************************
Tunning: Standard (E A D G B e)
Bad Religion- Infected

Tuning: Dropped D (D,A,D,G,B,e)

Key:

b= bend
v=vibrato
r=let ring

Pre-Intro: Lead Guitar

e-----------------------------------------------|
B-----------------------------------------------|
G-0r---------0r-----------0r--------------------|
D-----------------------------------------------|
A-----------------------------------------------|
E-----------------------------------------------|


Intro:

Rythm Guitar:
e----------------------------------------------------------------------------|
B----------------------------------------------------------------------------|
G------------------3-3-3-5-5-5-----------------------------------------------|
D------------------3-3-3-5-5-5-----------------------------------------------|
A--5-5-5---1-1-1-0-1-1-1-3-3-3-----------------------------------------------|
E--5-5-5-0-1-1-1-------------------------------------------------------------|
PM--------------------------------------------------------------------------|

Lead Guitar:

e-------------------------------------------|
B-------------------------------------------|
G-12v-15-12-15-12v--------------------------|
D--x---x--x--x--x---------------------------|
A-10v-13-10-13-10v--------------------------|
E-------------------------------------------|

e------------------------------------------------|
B------------------------------------------------|
G-12-12--12-12-12--12-12--12-12-12---------------|
D--x--x---x--x--x---x--x---x--x--x---------------|
A-10-10--10-10-10--10-10--10-10-10---------------|
E------------------------------------------------|

e--------------------------------------------------|
B--------------------------------------------------|
G-12-12-12-12-12---12-12-12-12-12---12-12-12-12-12-|
D--x--x--x--x--x----x--x--x--x--x----x--x--x--x--x-|
A-10-10-10-10-10---10-10-10-10-10---10-10-10-10-10-|
E--------------------------------------------------|

e-------------------------------------------|
B-------------------------------------------|
G-12v-15-12-15-12v--------------------------|
D--x---x--x--x--x---------------------------|
A-10v-13-10-13-10v--------------------------|
E-------------------------------------------|

e------------------------------------------------|
B------------------------------------------------|
G-12-12--12-12-12--12-12--12-12-12---------------|
D--x--x---x--x--x---x--x---x--x--x---------------|
A-10-10--10-10-10--10-10--10-10-10---------------|
E------------------------------------------------|

e--------------------------------------------------------------------|
B-/15-15-15-15-15--/15-15-15-15-15--/15-15-15-15-15--/15-15-15-15-15-|
G--------------------------------------------------------------------|
D--------------------------------------------------------------------|
A--------------------------------------------------------------------|
E--------------------------------------------------------------------|

Verse: Both Guitars

e---------------------------------------------------------------------------|
B---------------------------------------------------------------------------|
G------------------3-3-3-5-5-5----------------------------------------------|
D------------------3-3-3-5-5-5----------------------------------------------|
A--5-5-5---1-1-1-0-1-1-1-3-3-3----------------------------------------------|
E--5-5-5-0-1-1-1------------------------------------------------------------|

Pre-Chorus: Both Guitars

e----------------------------------------------------------|
B----------------------------------------------------------|
G--------------3-3------8-8-7-7-8--------------------------|
D--------------3-3------8-8-7-7-8--------------------------|
A-5-5-6-6--1-1-1-1--5-5-6-6-5-5-6-5-6----------------------|
E-5-5-6-6--1-1------5-5-----------5-6----------------------|

e-----------------------------------------------|
B-----------------------------------------------|
G-----------------------------------------------|
D-----------------------------------------------|
A-5-5-6-6--1--2-2--2-2-2--2-2-------------------|
E-5-5-6-6--1--2-2--2-2-2--2-2-------------------|

Chorus: Both Guitars

e---------------------------------------------------------|
B---------------------------------------------------------|
G-----------3-3--5-5------------3-3-----------------------|
D-----------3-3--5-5------------3-3-----------------------|
A-5-5--1-1--1-1--3-3--5-5--6-6--1-1--3-3------------------|
E-5-5--1-1------------5-5--6-6-------3-3------------------|

Chourus Outro: Both Guitars

e---------------------------------------------------------|
B---------------------------------------------------------|
G-----------3-3-3-3-3-------------------------------------|
D-----------3-3-3-3-3-------------------------------------|
A--5-5-1-1--1-1-1-1-1-------------------------------------|
E--5-5-1-1------------------------------------------------|

Bridge: Both Guitars

e-----------------------------------------------|
B-----------------------------------------------|
G-----------------------------------------------|
D-----------------------------------------------|
A-----------------------------------------------|
E-7-7-5-2-5--7-7-7-5-2-5------------------------|

e-----------------------------------------------|
B-----------------------------------------------|
G-----------------------------------------------|
D-----------------------------------------------|
A-----------------------------------------------|
E-2-0-2-0-2b-2b---------------------------------|

Solo:

Brett just improvises on frets 12-15 on the lower strings

Bridge #2 (Yeah, Yeah, Yeah):

e-----------------------------------------------|
B-----------------------------------------------|
G-12-12-12--------------------------------------|
D--x--x--x--------------------------------------|
A-10-10-10--------------------------------------|
E-----------------------------------------------|

It's easy to figure out timing and how many times each riff is played.

Lyrics:

now here I go,
hope I don't break down,
I won't take anything, I don't need anything,
don't want to exist, I can't persist,
please stop before I do it again,
just talk about nothing, let's talk about nothing,
let's talk about no one, please talk about no one, someone, anyone

you and me have a disease,
you affect me, you infect me,
I'm afflicted, you're addicted,
you and me, you and me

I'm on the edge,
get against the wall,
I'm so distracted,
I love to strike you,
here's my confession,
you learned your lesson,
stop me before I do it again

you're clear - as a heavy lead curtain want to drill you - like an ocean,
we can work it out, I've been running out, now I'm running out
don't be mad about it baby

Yeah, yeah, yeah
Yeah, yeah, yeah
Yeah, yeah, yeah
Yeah! Yeah! Yeahhh!


you and me, you and me,
I want to tie you, crucify you,
kneel before you, revile your body,
you and me, we're made in heaven,
I want to take you, I want to break you,
supplicate you, are incurable,
I want to bathe you in holy water I want to kill you,
upon the alter, you and me, you and me

There you go, for corrections, please e-mail to SCVCGrant@verizon.net
Tunning: D tuning (D G C F A D)
Artist: BAD RELIGION
Song: Infected
Album: Stranger Than Fiction
Tuning: 1 step down (DGCFAD)


Only "Infected" is tuned down 1 step.
All other songs on "Stranger Than Fiction" are tuned down 1/2 step.


INTRO:

Rhythm Guitar: (Palm Muted) Play twice

D|-----------------|-----------------|-----------------|-----------------|
A|-----------------|-----------------|-----------------|-----------------|
F|-2-2-2---------4-|-5-5-5-6-7-7-7-5-|-2-2-2---------4-|-5-5-5-6-7-7-7-5-|
C|-2-2-2-2-3-3-3-4-|-5-5-5-6-7-7-7-5-|-2-2-2-2-3-3-3-4-|-5-5-5-6-7-7-7-5-|
G|-0-0-0-2-3-3-3-2-|-3-3-3-4-5-5-5-3-|-0-0-0-2-3-3-3-2-|-3-3-3-4-5-5-5-3-|
D|-------0-1-1-1---|-----------------|-------0-1-1-1---|-----------------|

D|-----------------|-----------------|-----------------|-----------------|
A|-----------------|-----------------|-----------------|-----------------|
F|-2-2-2---------4-|-5-5-5-6-7-7-7-5-|-2-2-2---------4-|-5-5-5-5---------|
C|-2-2-2-2-3-3-3-4-|-5-5-5-6-7-7-7-5-|-2-2-2-2-3-3-3-4-|-5-5-5-5-5-5-5-5-|
G|-0-0-0-2-3-3-3-2-|-3-3-3-4-5-5-5-3-|-0-0-0-2-3-3-3-2-|-3-3-3-3-5-5-5-5-|
D|-------0-1-1-1---|-----------------|-------0-1-1-1---|---------3-3-3-3-|

Lead Guitar:

D|-----------------------------------|-----------------------------------|
A|-----------------------------------|-----------------------------------|
F|--14~------------------------------|-------------------17--14------17--|
C|-----------------------------------|-----------------------------------|
G|--12~------------------------------|-------------------15--12------15--|
D|-----------------------------------|-----------------------------------|

D|-----------------------------------|-----------------------------------|
A|-----------------------------------|-----------------------------------|
F|--14~------------------------------|-------------------------------12--|
C|-----------------------------------|-----------------------------------|
G|--12~------------------------------|-------------------------------10--|
D|-----------------------------------|-----------------------------------|

D|-----------------------------------|-----------------------------------|
A|-----------------------------------|-----------------------------------|
F|--14------14------1414141414-------|--14------14------1414141414-------|
C|-----------------------------------|-----------------------------------|
G|--12------12------1212121212-------|--12------12------1212121212-------|
D|-----------------------------------|-----------------------------------|

D|-----------------------------------|-----------------------------------|
A|-----------------------------------|-----------------------------------|
F|--1414141414------1414141414-------|--1414141414------1414141414-------|
C|-----------------------------------|-----------------------------------|
G|--1212121212------1212121212-------|--1212121212------1212121212-------|
D|-----------------------------------|-----------------------------------|

D|-----------------------------------|-----------------------------------|
A|-----------------------------------|-----------------------------------|
F|--14~------------------------------|-------------------------------12--|
C|-----------------------------------|-----------------------------------|
G|--12~------------------------------|-------------------------------10--|
D|-----------------------------------|-----------------------------------|

D|-----------------------------------|-----------------------------------|
A|-----------------------------------|-----------------------------------|
F|--14~------------------------------|-------------------------------12--|
C|-----------------------------------|-----------------------------------|
G|--12~------------------------------|-------------------------------10--|
D|-----------------------------------|-----------------------------------|

D|-----------------------------------|-----------------------------------|
A|-----------------------------------|-----------------------------------|
F|--14------14------1414141414-------|--14------14------1414141414-------|
C|-----------------------------------|-----------------------------------|
G|--12------12------1212121212-------|--12------12------1212121212-------|
D|-----------------------------------|-----------------------------------|

D|-----------------------------------|-----------------------------------|
A|-----------------------------------|-----------------------------------|
F|--2121212121------2121212121-------|--2121212121------2121212121\------|
C|-----------------------------------|-----------------------------------|
G|--1919191919------1919191919-------|--1919191919------1919191919\------|
D|-----------------------------------|-----------------------------------|


VERSE:

D|-----------------|-----------------|-----------------|-----------------|
A|-----------------|-----------------|-----------------|-----------------|
F|-2-2-2---------4-|-5-5-5-6-7-7-7-5-|-2-2-2---------4-|-5-5-5-6-7-7-7-5-|
C|-2-2-2-2-3-3-3-4-|-5-5-5-6-7-7-7-5-|-2-2-2-2-3-3-3-4-|-5-5-5-6-7-7-7-5-|
G|-0-0-0-2-3-3-3-2-|-3-3-3-4-5-5-5-3-|-0-0-0-2-3-3-3-2-|-3-3-3-4-5-5-5-3-|
D|-------0-1-1-1---|-----------------|-------0-1-1-1---|-----------------|

D|-----------------|-----------------|-----------------|-----------------|
A|-----------------|-----------------|-----------------|-----------------|
F|-2-2-2---------4-|-5-5-5-6-7-7-7-5-|-2-2-2---------4-|-5-5-5-5---------|
C|-2-2-2-2-3-3-3-4-|-5-5-5-6-7-7-7-5-|-2-2-2-2-3-3-3-4-|-5-5-5-5-5-5-5-5-|
G|-0-0-0-2-3-3-3-2-|-3-3-3-4-5-5-5-3-|-0-0-0-2-3-3-3-2-|-3-3-3-3-5-5-5-5-|
D|-------0-1-1-1---|-----------------|-------0-1-1-1---|---------3-3-3-3-|


PRE-CHORUS:

D|-----------------|-----------------|-----------------|-----------------|
A|-----------------|-----------------|-----------------|-----------------|
F|-----------------|-----------------|---------1010109-|---------1010109-|
C|---7-777-8---8---|---3-333-5---5---|-7-7-7-5-1010109-|---7-7-5-1010109-|
G|---7-777-8---8---|---3-333-5---5---|-7-7-7-5-8-8-8-7-|---7-7-5-8-8-8-7-|
D|---5-555-6---6---|---1-111-3---3---|-5-5-5-3---------|---5-5-3---------|

P.M...
D|-----------------|-----------------|-----------------|
A|-----------------|-----------------|-----------------|
F|-----------------|-----------------|-----------------|
C|---7-777-8---8---|---3-333-4---4---|-4---4---4-4-4---|
G|---7-777-8---8---|---3-333-4---4---|-4---4---4-4-4---|
D|---5-555-6---6---|---1-111-2---2---|-2---2---2-2-2---|


CHORUS:

Play twice

D|-----------------|-----------------|-----------------|-----------------|
A|-----------------|-----------------|-----------------|-----------------|
F|-----------------|-5-5-5-5---------|-----------------|-----------------|
C|-7-7-7-7-3-3-3-3-|-5-5-5-5-5-5-5-5-|---7-777-8---8---|---3-333-5---5---|
G|-7-7-7-7-3-3-3-3-|-3-3-3-3-5-5-5-5-|---7-777-8---8---|---3-333-5---5---|
D|-5-5-5-5-1-1-1-1-|---------3-3-3-3-|---5-555-6---6---|---1-111-3---3---|


CHORUS END 1:

D|-----------------|-----------------|
A|-----------------|-----------------|
F|-----------------|-----------------|
C|-7-7-7-7-7-7-7-7-|-8-8-8-8-8-------|
G|-7-7-7-7-7-7-7-7-|-8-8-8-8-8-------|
D|-5-5-5-5-5-5-5-5-|-6-6-6-6-6-------|


Repeat: VERSE, PRE-CHORUS, CHORUS


CHORUS END 2:

D|-----------------|-----------------|
A|-----------------|-----------------|
F|-----------------|-----------------|
C|-7-7-7-7-7-7-7-7-|-7-7-7-7-7-7-7-7-|
G|-7-7-7-7-7-7-7-7-|-7-7-7-7-7-7-7-7-|
D|-5-5-5-5-5-5-5-5-|-5-5-5-5-5-5-5-5-|


BRIDGE:

D|-----------------|-----------------|-----------------|-----------------|
A|-----------------|-----------------|-----------------|-----------------|
F|-----------------|-----------------|-----------------|-----------------|
C|-----------------|-----------------|-----------------|-----------------|
G|-2-2-2-0-----0---|-2-2-2-0-----0---|-2-2-2-0-----0---|-2-2-2-2-2---0---|
D|---------2-------|---------2-------|---------2-------|-----------------|

D|-----------------|-----------------|-----------------|-----------------|
A|-----------------|-----------------|-----------------|-----------------|
F|-----------------|-----------------|-----------------|-----------------|
C|-----------------|-----------------|-----------------|-7-7-7-7-7-7-7-7-|
G|-----------------|-----------------|-5-5-5-5-5-5-5-5-|-7-7-7-7-7-7-7-7-|
D|-2-2-2-0-3---2---|-2-2-2-0-3---2---|-3-3-3-3-3-3-3-3-|-5-5-5-5-5-5-5-5-|


SOLO:

D|-----------------------------------|-----------------------------------|
A|-----------------------------------|-----------------------------------|
F|--16~~------------16~~-------------|--16--14------------14161416--14---|
C|-----------------------------------|------------------16---------------|
G|-----------------------------------|-----------------------------------|
D|-----------------------------------|-----------------------------------|

D|-----------------------------------|----------14-----------------------|
A|-----------------------------------|--------17--17----17~~-------------|
F|----141614-------------------------|----1416------1614-----------------|
C|--16-------------------------------|--16-------------------------------|
G|----------14~~---------------------|-----------------------------------|
D|-----------------------------------|-----------------------------------|

D|--14\\12---------------------------|-----------------------------------|---
A|----------15-----------------------|-----------------------------------|---
F|----------------------1416---------|-----------------------------------|---
C|------------------1215----16-------|-----------------------------------|--9
G|-----------------------------------|---------------------9----10---9---|---
D|-----------------------------------|-----------------9-----------------|---


Play under solo:

D|-----------------|-----------------|
A|-----------------|-----------------|
F|-4-4-4-4-5-5-5-5-|-----------------|
C|-4-4-4-4-5-5-5-5-|-5-5-5-5-7-7-7-7-|
G|-2-2-2-2-3-3-3-3-|-5-5-5-5-7-7-7-7-|
D|-----------------|-3-3-3-3-5-5-5-5-|


INTERLUDE:

Same riff like under solo (5x)


OUTRO:

Same riff like under solo (10x)

Ends on

D|-7-|
A|-7-|
F|-8-|
C|-9-|
G|-9-|
D|-7-|
Song info
Infected
Bad Religion
2001
  • Rock
  • Punk
Alternative tracks
Similar songs
Anarchy In The UK - Sex Pistols
Prisoner Of Society - The Living End
Know Your Enemy - Green Day
Pretty Vacant - Sex Pistols

Hi! Hope you enjoy backing track experience.
If you want to help us in the development of the project, feel free to donate!