Tragedy - Bee Gees
00:00 / 00:00
Tabs and lyrics
Tunning: Standard (E A D G B e)
TABBED BY EAR
Gtr1-Electric Guitar (Clean, No Distortion, No Overdrive)
Gtr2-Overdriven Guitar
Gtr3-Distortion Guitar
INTRO:Gtr1:
Bm Em Bm A G A D A D(hammer)8X
Gtr2:
e|---------------7-5-7b-5---5-7-9-10-7--9—-10(ring--)----------------|
B|-------------------------------------------------------------------|
G|-------------------------------------------------------------------|
D|-------------------------------------------------------------------|
A|-------------------------------------------------------------------|
E|-------------------------------------------------------------------|
Gtr3:
e|-------------------------------------------------------------------|
B|-------------------------------------------------------------------|
G|-----------------------------------------0-2-----------------------|
D|----0-----0-2-0----------------0-----2--4-----------00--00--00--00-|
A|2-4---2-4-------4-2---4--------------------------------------------|
E|-------------------------------------------------------------------|
VERSE CHORDS
Gtr1, Gtr3(Strum once)
D Gtr3:
Here I lie D(Hammer)2X
In a lost and lonely part of town
Held in time D(Hammer)2X
In a world of tears I slowly drown
E
Goin'home
I just can't make it
F#
All alone
I really should be
E
Holding you
Holding you
G
Loving you, loving you

CHORUS CHORDS
Bm
Tragedy
F#m
When the feeling's gone and you can't go on
Bm
It's tragedy
F#m
When the morning cries and you don't know why
Em7
It's hard to bear
A Bm G F#
With no one to love you you're goin' nowhere

Bm
Tragedy
F#m
When you lose control and you got no soul
Bm
It's tragedy
F#m
When the morning cries and you don't know why
Em7
It's hard to bear
A G F#
With no-one beside you you're goin' nowhere

INSTRUMENTAL:
Gtr 1
Bm Em Bm A G A D A D(hammer)8X
Gtr2:
e|---------------7-5-7b-5---5-7-9-10-7--9—-10(ring--)----------------|
B|-------------------------------------------------------------------|
G|-------------------------------------------------------------------|
D|-------------------------------------------------------------------|
A|-------------------------------------------------------------------|
E|-------------------------------------------------------------------|
Gtr3:
e|-------------------------------------------------------------------|
B|-------------------------------------------------------------------|
G|-----------------------------------------0-2-----------------------|
D|----0-----0-2-0----------------0-----2--4-----------00--00--00--00-|
A|2-4---2-4-------4-2---4--------------------------------------------|
E|-------------------------------------------------------------------|
VERSE CHORDS
D Gtr3:
Night and day D(Hammer)2X
There's a burning down inside of me (uuh)
Burning love D(Hammer)2X
With a yearning that won't let me be
E
Down I go
And I just can't take it
F#
All alone
I really should be
E
Holding you
Holding you,
G
Loving you, loving you

CHORUS CHORDS
Bm
Tragedy
F#m
When the feeling's gone and you can't go on
Bm
It's tragedy
F#m
When the morning cries and you don't know why
Em7
It's hard to bear
A Bm G F#
With no one to love you you're goin' nowhere

MIDDLE:
Gtr1:
Bm Em F# Bm Em F# G(Strum Once, Ring)
Gtr2,3:
e|--------------------------------------------------------------|
B|------------------------------------------0-2-3---------------|
G|-----------------------------------2-0--3---------------------|
D|----0-----0-2-0-------------0-----0----4----------------------|
A|2-4---2-4-------4-2-1-4-2-4---2-4-----------------------------|
E|--------------------------------------------------------------|
CHORUS CHORDS
Gtr1, 3:
Bm
Tragedy
F#m
When you lose control and you got no soul
Bm
It's tragedy
F#m
When the morning cries and you don’t know why
Em7
It's hard to bear Gtr2:
A Bm G F# e|-9b(full)-7-6-|
With no one beside you you're goin' nowhere B|--------------|
Uuuuhh G|--------------|
D|--------------|
A|--------------|
E|--------------|
Bm
Tragedy
F#m
When the feeling's gone and you can't go on
Bm
It's tragedy
F#m
When the morning cries and your heart just died
Em7
It's hard to bear Gtr2:
A Bm G F# e-9-10-9-7-14(ring)-|
With no one to love you you're goin' nowhere B-------------------|
Uuuuuuhh G-------------------|
D-------------------|
A-------------------|
E-------------------|

Bm
Tragedy
F#m e|-----------------------------|
When you lose control B|-0-2-3-2—3-5-7—8-10-12(ring)-|
and you got no soul G|-----------------------------|
Bm D|-----------------------------|
It's tragedy A|-----------------------------|
F#m E|-----------------------------|
When the morning cries
and your heart just died
Em7
It's hard to bear
A
With no one beside you Gtr2:
Bm G F# e-9b(full)-7-6-|
you're goin' nowhere B--------------|
Uuuuhh G--------------|
D--------------|
A--------------|
E--------------|
Bm
Tragedy
F#m e|-7-9-10-9-10-12-12/14-14/12-12/14-15-17-19-|
When tou lose control B|-------------------------------------------|
and you got no soul G|-------------------------------------------|
Bm D|-------------------------------------------|
It's tragedy A|-------------------------------------------|
F#m E|-------------------------------------------|
When the morning cries
and your heart just died
Em7
It's hard to bear
SLOWLY FADE
A
With no one to love you Gtr2:
Bm G F# e|-9b(full)-7-6--—2-6-9-12-10-9-6-7-|
you're goin' nowhere B|----------------------------------|
Uuuuuuuh G|----------------------------------|
D|----------------------------------|
A|----------------------------------|
E|----------------------------------|
FADE:
Bm
Tragedy
F#m e|-7-9-10-9-10-12-12/14-14/12-12/14-15-17-19-|
When the feeling's gone B|-------------------------------------------|
and you can't go on G|-------------------------------------------|
Bm D|-------------------------------------------|
It's tragedy A|-------------------------------------------|
F#m E|-------------------------------------------|
When the morning cries
and you don’t know why
Em7
It's hard to bear
A
With no one to love you
Bm G F#
you’re goin’ nowhere
Song info
Tragedy
Bee Gees
2001
  • Funk / Soul
  • Pop
  • Disco
Similar songs
Spacer - Sheila And B Devotion
Get On The Floor - Michael Jackson
Say You Say Me - Lionel Richie
Stayin Alive - Bee Gees

Hi! Hope you enjoy backing track experience.
If you want to help us in the development of the project, feel free to donate!