Dancing With Myself - Billy Idol
00:00 / 00:00
Tabs and lyrics
Tunning: Standard (E A D G B e)
Great punk rock song. Pretty simple, goes like this

Figure 1
(Intro)

-----000000000--------
-----555545755--------
----------------------
----------------------
----------------------
----------------------

Verse:Palm Muted

Repeat Figure #1 two times, 3rd time is below. Rhythm Varies and figure
varies each time around, listen to song.

000000000000000
555545554555755
---------------
---------------
---------------
---------------

(E) (A) (B)
------------------------------------
------------------------------------
------------------------------------
------------------------------------
222222222222777777777777999999999999
222222222222777777777777999999999999
000000000000555555555555777777777777

Chorus:

Same Chords as verse
Listen close for the rhythm. Each chourus is played with a little different rhythm

(E) (A) (B) (A)
---------------------------
---------------------------
9---99-9-------------------
9---99-9-------------------
7---77-7-----77-7-9----99-97
-------------55-5-7----77-75

Bridge: (Again, listen to rhythm)

Prior to solo

(E) (A) (E) (B)
---------------------------
---------------------------
--9---------------9--------
--9-------7-------9-------9
--7-------7-------7-------9
----------5---------------7


Big Solo!

B Note on 5th and E note on 4th string are palm muted. F# note on 4th string is
slightly palm muted. Drone (B) is played wide open and is played one measure longer
the last time around and with a bit of staccato. Play with all downstrokes.

--------------------------------
------------0000------------0000
------------4444------------4444 1/2 step bend second time
----22224444--------22224444----
2222------------2222------------

Rhythm under solo is just palm muted power chords. E power chord is played 2 measures
longer last time around

(B) (E)
------------------------
------------------------
------------999999999999
999999999999999999999999
999999999999777777777777
777777777777------------

Verse after solo has a rest with a guitar bend:

-
-
4^ (Bend one whole step)
-
-
-

The original is 5 minutes long. Listen close for variations in rhythms during some
parts. This is pretty much the basics of the the song.
Tunning: Standard (E A D G B e)
This is how i will presume Billy Idol plays it, it sounds perfect to me, Worked a
lot with it, for corrections e-mail OMAR_doggie@hotmail.com !



verse 1 and intro

guitar 1 (x12)
e|--------------------|
B|--------------------|
G|--999-9-9-8-9-11-9--|
D|--------------------|
A|--------------------|
E|--------------------|



Chorus
guitar 2
e|------------------------------| It's many ways
B|------------------------------| you can play
G|--99999-----------------------| this chorus.
D|--99999--77777--99999--77777--| Our band usually
A|--77777--77777--99999--77777--| Just mute this part
E|---------55555--77777--55555--| a bit

guitar 1 Guitar 2
e|----------|--------------|This is how
B|----------|--------------|Chorus ends
G|--999999--|--9----Let----|on both guitars
D|----------|--9----This---|
A|----------|--7----Ring!--|
E|----------|--------------|


Verse 2

guitar 1 (x8)
e|--------------------|
B|--------------------|
G|--999-9-9-8-9-11-9--|
D|--------------------|
A|--------------------|
E|--------------------|


Chorus
guitar 2
e|------------------------------| It's many ways
B|------------------------------| you can play
G|--99999-----------------------| this chorus.
D|--99999--77777--99999--77777--| Our band usually
A|--77777--77777--99999--77777--| Just mute this part
E|---------55555--77777--55555--| a bit

guitar 2
e|-----------------------------|
B|-----------------------------|
G|--9--------------------------|
D|--9-----7-----2-----9--999999|
A|--7-----7-----2-----9--999999|
E|--------5-----0-----7--777777|


Solo

Guitar 1 (x6)
e|-----------------------|---------------------------------|
B|-----------------------|---------------------------------|
G|-----------------4464--|-----------------444-44-44-4444--|
D|-------2222-4444-------|-------2222-4444----4--4--4------|
A|--2222-----------------|--2222---------------------------|
E|-----------------------|---------------------------------|


verse 3

guitar 1 (x7)
e|-------------------|The reason for Why I
B|--555-5-5-4-5-7-5--|suddendly moved The
G|-------------------|place we usually Play
D|-------------------|the verse is that it is
A|-------------------|much easier to jump to
E|-------------------|this place after the solo =)
guitar 1 guitar 2
e|-------| |--------|Guitar 2 plays this AFTER
B|--2h0--| |--------|guitar one have played its
G|-------| |--------|tones, not at the same time
D|-------| |--7777--|
A|-------| |--7777--|
E|-------| |--5555--|


Chorus
guitar 2
e|------------------------------| It's many ways
B|------------------------------| you can play
G|--99999-----------------------| this chorus.
D|--99999--77777--99999999999---| Our band usually
A|--77777--77777--99999999999---| Just mute this part
E|---------55555--77777777777---| a bit

(x7)
e|----------------|
B|----------------|
G|--99999---------|
D|--99999--77777--|
A|--77777--77777--|
E|---------55555--|

PLAY AND ENJOY!
Tunning: Standard (E A D G B e)
Billy Idol Dancing with myself
From the album: dunno? I got it from the greatest hits
Tabbed by Liam
Email: guitar_rocker_47@hotmail.com
Tuning: half a step down

Note: this is not the generation X version –the two versions differ slightly, this is
Idol’s version with Steve Stevens on lead guitar (not Derwood from Generation X) if you
the Generation X version im sure I could give it a go for you. To reiterate the song’s
duration should be 4.50 minutes or there abouts cos that is Billy Idol’s version.

[Intro]
|Guitar 1 only
D#|--------------------------------------------------------------------------------|
A#|--------------------------------------------------------------------------------|
F#|-9999-8~99/11-9~9999--999-8~99/11-9~9999--999-8~99/11-9-9999--999-8~99/11-9-9999|
C#|--------------------------------------------------------------------------------|
G#|--------------------------------------------------------------------------------|
D#|--------------------------------------------------------------------------------|

[Verse 1]
(there is a variation in the lead riff here)
|Guitar 1
D#|-----------------------------------------------------------------------------|
A#|-----------------------------------------------------------------------------|
F#|-999-8~99/11-9~9999--999-8~99/11-9-9999--999--888--999--888---999-8~9-9/11-9-|
C#|-----------------------------------------------------------------------------|
G#|-----------------------------------------------------------------------------|
D#|-----------------------------------------------------------------------------|

|Guitar 2
D#|-----------------------------------------------------------------------------|
A#|-----------------------------------------------------------------------------|
F#|-----------------------------------------------------------------------------|
C#|-22222222-22222222--77777777-77777777--99999999-99999999-77777777-7777--7777-|
G#|-22222222-22222222--77777777-77777777--99999999-99999999-77777777-7777--7777-|
D#|-00000000-00000000--55555555-55555555--77777777-77777777—55555555-5555--5555-|
PM ******** ******** ******** ******** ******** ******** ******** **** ****

|Guitar 1
D#|-----------------------------------------------------------------------------|
A#|-----------------------------------------------------------------------------|
F#|-999-8~99/11-9~9999--999-8~99/11-9-9999--999--888--999--888---999-8~9-9/11-9-|
C#|-----------------------------------------------------------------------------|
G#|-----------------------------------------------------------------------------|
D#|-----------------------------------------------------------------------------|

|Guitar 2
D#|---------------------------------------------------------------------------|
A#|---------------------------------------------------------------------------|
F#|---------------------------------------------------------------------------|
C#|-22222222-22222222--77777777-77777777--99999999-99999999-77777777-77777777-|
G#|-22222222-22222222--77777777-77777777--99999999-99999999-77777777-77777777-|
D#|-00000000-00000000--55555555-55555555--77777777-77777777—55555555-55555555-|
PM ******** ******** ******** ******** ******** ******** ******** ********

[Chorus 1]
|Both guitars
D#|---------------------------------------|
A#|---------------------------------------|
F#|-9~~------9999-------------------------|
C#|-9~~-99-x-9999-7~~-------9~~-------7~~-|
G#|-7~~-77-x-7777-7~~-77-x--9~~-99-x--7~~-|
D#|---------------5~~-55-x--7~~-77-x--5~~-|

[Pre-verse 2]
|Guitar 1 only
D#|------------------|
A#|-00000000-0000000-|
F#|-55555555-5555555-|
C#|------------------|
G#|------------------|
D#|------------------|

[Verse 2]
|Guitar 1
D#|-----------------------------------------------------------------------------|
A#|-----------------------------------------------------------------------------|
F#|-999-8~99/11-9~9999--999-8~99/11-9-9999--999--888--999--888---999-8~9-9/11-9-|
C#|-----------------------------------------------------------------------------|
G#|-----------------------------------------------------------------------------|
D#|-----------------------------------------------------------------------------|

|Guitar 2
D#|---------------------------------------------------------------------------|
A#|---------------------------------------------------------------------------|
F#|---------------------------------------------------------------------------|
C#|-22222222-22222222--77777777-77777777--99999999-99999999-77777777-77777777-|
G#|-22222222-22222222--77777777-77777777--99999999-99999999-77777777-77777777-|
D#|-00000000-00000000--55555555-55555555--77777777-77777777—55555555-55555555-|
PM ******** ******** ******** ******** ******** ******** ******** ********

|Guitar 1
D#|-----------------------------------------------------------------------------|
A#|-----------------------------------------------------------------------------|
F#|-999-8~99/11-9~9999--999-8~99/11-9-9999--999--888--999--888---999-8~9-9/11-9-|
C#|-----------------------------------------------------------------------------|
G#|-----------------------------------------------------------------------------|
D#|-----------------------------------------------------------------------------|

|Guitar 2
D#|---------------------------------------------------------------------------|
A#|---------------------------------------------------------------------------|
F#|---------------------------------------------------------------------------|
C#|-22222222-22222222--77777777-77777777--99999999-99999999-77777777-77777777-|
G#|-22222222-22222222--77777777-77777777--99999999-99999999-77777777-77777777-|
D#|-00000000-00000000--55555555-55555555--77777777-77777777—55555555-55555555-|
PM ******** ******** ******** ******** ******** ******** ******** ********

[Chorus 2]
|Both guitars
D#|-------------------------------------------------|
A#|-------------------------------------------------|
F#|-9~~------9999-----------------------------------|
C#|-9~~-99-x-9999-7~~------7777--9~~------9999--7~~-|
G#|-7~~-77-x-7777-7~~-77-x-7777--9~~-99-x-9999--7~~-|
D#|---------------5~~-55-x-5555--7~~-77-x-7777--5~~-|

[Pre-Solo]
|Both guitars
D#|-----------------------------------------|
A#|-----------------------------------------|
F#|-9~~---------99999999--------------------|
C#|-9~~--7~~--9-99999999-999999999-99999999-|
G#|-7~~--7~~--7-77777777-999999999-99999999-|
D#|------5~~-------------777777777-77777777-|
PM ******** *********

[Solo]
|Guitar 1 (alternate pick all notes)
D#|------------------------------------------|
A#|------------------------------------------|
F#|------------------------------------------|
C#|-------------4444------------4bu-(4-4-4r)-|
G#|-----22224444--------22224444-------------|
D#|-2222------------2222---------------------|

|Guitar 2
D#|------------------------------------------|
A#|------------------------------------------|
F#|------------------------------------------|
C#|-9-9-9-9-9-9-9-9-9----9-9-9-9-9-9-9-9-9-9-|
G#|-9-9-9-9-9-9-9-9-9----9-9-9-9-9-9-9-9-9-9-|
D#|-7-7-7-7-7-7-7-7-7----7-7-7-7-7-7-7-7-7-7-|
PM * * * * * * * * * * * * * * * * * * *

|Guitar 1
D#|------------------------------------------|
A#|------------------------------------------|
F#|------------------------------------------|
C#|-------------4444------------4bu-(4-4-4r)-|
G#|-----22224444--------22224444-------------|
D#|-2222------------2222---------------------|

|Guitar 2
D#|------------------------------------------|
A#|------------------------------------------|
F#|-9-9-9-9-9-9-9-9-9----9-9-9-9-9-9-9-9-9-9-|
C#|-9-9-9-9-9-9-9-9-9----9-9-9-9-9-9-9-9-9-9-|
G#|-7-7-7-7-7-7-7-7-7----7-7-7-7-7-7-7-7-7-7-|
D#|------------------------------------------|
PM * * * * * * * * * * * * * * * * * * *

|Guitar 1
D#|------------------------------------------|
A#|------------------------------------------|
F#|------------------------------------------|
C#|-------------4444------------4bu-(4-4-4r)-|
G#|-----22224444--------22224444-------------|
D#|-2222------------2222---------------------|

|Guitar 2
D#|------------------------------------------|
A#|------------------------------------------|
F#|------------------------------------------|
C#|-9-9-9-9-9-9-9-9-9----9-9-9-9-9-9-9-9-9-9-|
G#|-9-9-9-9-9-9-9-9-9----9-9-9-9-9-9-9-9-9-9-|
D#|-7-7-7-7-7-7-7-7-7----7-7-7-7-7-7-7-7-7-7-|
PM * * * * * * * * * * * * * * * * * * *

|Guitar 1
D#|---------------------------------------|
A#|---------------------------------------|
F#|---------------------------------------|
C#|-------------4444—-444444444-44444444v-|
G#|-----22224444--------------------------|
D#|-2222----------------------------------|

|Guitar 2
D#|---------------------------------------|
A#|---------------------------------------|
F#|-9-9-9-9-9-9-9-9-9-9-9-9-9-9-9-9-9-9-9-|
C#|-9-9-9-9-9-9-9-9-9-9-9-9-9-9-9-9-9-9-9-|
G#|-7-7-7-7-7-7-7-7-7-7-7-7-7-7-7-7-7-7-7-|
D#|---------------------------------------|
PM * * * * * * * * * * * * * * * * * * *

[Verse 3]
|Guitar 1
D#|-----------------------------------------------------------------------------|
A#|-----------------------------------------------------------------------------|
F#|-999-8~99/11-9~9999--999-8~99/11-9-9999--999--888--999--888---999-8~9-9/11-9-|
C#|-----------------------------------------------------------------------------|
G#|-----------------------------------------------------------------------------|
D#|-----------------------------------------------------------------------------|

|Guitar 2
D#|---------------------------------------------------------------------------|
A#|---------------------------------------------------------------------------|
F#|---------------------------------------------------------------------------|
C#|-22222222-22222222--77777777-77777777--99999999-99999999-77777777-77777777-|
G#|-22222222-22222222--77777777-77777777--99999999-99999999-77777777-77777777-|
D#|-00000000-00000000--55555555-55555555--77777777-77777777—55555555-55555555-|
PM ******** ******** ******** ******** ******** ******** ******** ********

|Guitar 1
D#|---------------------------------------------------------------------------|
A#|---------------------------------------------------------------------------|
F#|-999-8~99/11-9~9999--999-8~99/11-9-9999------------------------------------|
C#|----------------------------------------------------9bd~-----7777-77777777-|
G#|-------------------------------------------------------------7777-77777777-|
D#|-------------------------------------------------------------5555-55555555-|

|Guitar 2
D#|---------------------------------------------------------------------------|
A#|---------------------------------------------------------------------------|
F#|---------------------------------------------------------------------------|
C#|-22222222-22222222--77777777-77777777------------------------7777-77777777-|
G#|-22222222-22222222--77777777-77777777------------------------7777-77777777-|
D#|-00000000-00000000--55555555-55555555------------------------5555-55555555-|
PM ******** ******** ******** ********

[Chorus 3]
|Both guitars
D#|-------------------------------------------------------------------------------|
A#|-------------------------------------------------------------------------------|
F#|-9~~---------------------------------------------------------------------------|
C#|-9~~-99-x-7~~------9~~------9999-9999-9999-9999-9999-9999¬-99999999-99999999---|
G#|-7~~-77-x-7~~-77-x-9~~-99-x-9999-9999-9999-9999-9999-9999¬-99999999-99999999---|
D#|----------5~~-55-x-7~~-77-x-7777-7777-7777-7777-7777-7777-77777777-77777777----|

[Bridge]
D#|---------------------------------------------|
A#|---------------------------------------------|
F#|-9999999999------------9999999999------------|
C#|-9999999999-7777777777-9999999999-9999999999-| x2
G#|-7777777777-7777777777-7777777777-9999999999-|
D#|------------5555555555------------7777777777-|

(bass break)

come in at (3.15) with:

[Solo 2]
|Guitar 1 (alternate pick all notes)
D#|------------------------------------------|
A#|------------------------------------------|
F#|------------------------------------------|
C#|-------------4444------------4bu-(4-4-4r)-|
G#|-----22224444--------22224444-------------|
D#|-2222------------2222---------------------|

|Guitar 2
D#|------------------------------------------|
A#|------------------------------------------|
F#|------------------------------------------|
C#|-9-9-9-9-9-9-9-9-9----9-9-9-9-9-9-9-9-9-9-|
G#|-9-9-9-9-9-9-9-9-9----9-9-9-9-9-9-9-9-9-9-|
D#|-7-7-7-7-7-7-7-7-7----7-7-7-7-7-7-7-7-7-7-|
PM * * * * * * * * * * * * * * * * * * *

|Guitar 1
D#|---------------------------------------|
A#|---------------------------------------|
F#|---------------------------------------|
C#|-------------4444—-444444444-44444444v-|
G#|-----22224444--------------------------|
D#|-2222----------------------------------|

|Guitar 2
D#|---------------------------------------|
A#|---------------------------------------|
F#|-9-9-9-9-9-9-9-9-9-9-9-9-9-9-9-9-9-9-9-|
C#|-9-9-9-9-9-9-9-9-9-9-9-9-9-9-9-9-9-9-9-|
G#|-7-7-7-7-7-7-7-7-7-7-7-7-7-7-7-7-7-7-7-|
D#|---------------------------------------|
PM * * * * * * * * * * * * * * * * * * *

[Verse 4]
|Guitar 1
D#|-----------------------------------------------------------------------------|
A#|-----------------------------------------------------------------------------|
F#|-999-8~99/11-9~9999--999-8~99/11-9-9999--999--888--999--888---999-8~9-9/11-9-|
C#|-----------------------------------------------------------------------------|
G#|-----------------------------------------------------------------------------|
D#|-----------------------------------------------------------------------------|

|Guitar 2
D#|---------------------------------------------------------------------------|
A#|---------------------------------------------------------------------------|
F#|---------------------------------------------------------------------------|
C#|-22222222-22222222--77777777-77777777--99999999-99999999-77777777-77777777-|
G#|-22222222-22222222--77777777-77777777--99999999-99999999-77777777-77777777-|
D#|-00000000-00000000--55555555-55555555--77777777-77777777—55555555-55555555-|
PM ******** ******** ******** ******** ******** ******** ******** ********

|Guitar 1
D#|---------------------------------------------------------------------------|
A#|---------------------------------------------------------------------------|
F#|-999-8~99/11-9~9999--999-8~99/11-9-9999------------------------------------|
C#|----------------------------------------------------9bd~-----7777-77777777-|
G#|-------------------------------------------------------------7777-77777777-|
D#|-------------------------------------------------------------5555-55555555-|

|Guitar 2
D#|---------------------------------------------------------------------------|
A#|---------------------------------------------------------------------------|
F#|---------------------------------------------------------------------------|
C#|-22222222-22222222--77777777-77777777------------------------7777-77777777-|
G#|-22222222-22222222--77777777-77777777------------------------7777-77777777-|
D#|-00000000-00000000--55555555-55555555------------------------5555-55555555-|
PM ******** ******** ******** ********

[Last Chorus]
|Both guitars
D#|-------------------------------------------------------------------------------|
A#|-------------------------------------------------------------------------------|
F#|-9~~---------------------------------------------------------------------------|
C#|-9~~-99-x-7~~------9~~------9999-9999-9999-9999-9999-9999¬-99999999-99999999---|
G#|-7~~-77-x-7~~-77-x-9~~-99-x-9999-9999-9999-9999-9999-9999¬-99999999-99999999---|
D#|----------5~~-55-x-7~~-77-x-7777-7777-7777-7777-7777-7777-77777777-77777777----|

[Outro]
D#|---------------------------------------------|
A#|---------------------------------------------|
F#|-9999999999------------9999999999------------|
C#|-9999999999-7777777777-9999999999-9999999999-| x4 then to fade
G#|-7777777777-7777777777-7777777777-9999999999-| on 5th repeat
D#|------------5555555555------------7777777777-|



************************************

| x Dead note
| / Slide up
| ~ Vibrato

************************************
Tunning: Standard (E A D G B e)
DANCING WITH MYSELF

As recorded by Billy Idol
(From the 1982 Album BILLY IDOL)

Words and Music by Billy Idol & Tony James

Transcribed by Slowhand


Gtr I (E A D G B E) - 'Steve Stevens - Electric Guitar'


Intro
Q=178
N.C.
4/4
Gtr I
W W H Q E E E E E E Q E E +E Q E +E E E E
|----------|----------|-------------|-0---0----------|--------0-(0)---0-0-|
|----------|----------|-----------5-|---5---5-4--5-7-|-(7)-5--------5-5-5-|
|----------|----------|-------------|----------------|--------------------|
|----------|----------|-------------|----------------|--------------------|
|----------|----------|-------------|----------------|--------------------|
|----------|----------|-------------|----------------|--------------------|


E E E E Q E E +E Q E +E E E E
||--0---0----------|--------0-(0)---0-0--||
||o---5---5-4--5-7-|-(7)-5--------5-5-5-o||
||-----------------|---------------------||
||-----------------|---------------------||
||o----------------|--------------------o||
||-----------------|---------------------||


E E E E Q E E +E Q E +E E Q
|-0---0----------|--------0-(0)-0-0--||
|---5---5-4--5-7-|-(7)-5--5-(5)-5-5--||
|----------------|-------------------||
|----------------|-------------------||
|----------------|-------------------||
|----------------|-------------------||


1st - 3rd Verses
$
N.C.
E E E E Q E E +E Q E +E E E E E E E E Q E E +E Q E +E E E E
||--0---0----------|--------0-(0)---0-0-|-0---0----------|--------0-(0)---0-0-|
||o---5---5-4--5-7-|-(7)-5--------5-5-5-|---5---5-4--5-7-|-(7)-5--------5-5-5-|
||-----------------|--------------------|----------------|--------------------|
||-----------------|--------------------|----------------|--------------------|
||o----------------|--------------------|----------------|--------------------|
||-----------------|--------------------|----------------|--------------------|


Q E E +E E Q +E Q E Q Q Q Q E Q a E +E Q E +E E E E
|-0--0---------0--|-(0)------0-----|----0--0-0------|--------0-(0)-0-0-0-|
|------4-(4)-4----|-----4--4----4--|-5--5--5-5--5s7-|-(7)-5--5-(5)-5-5-5-|
|-----------------|----------------|----------------|--------------------|
|-----------------|----------------|----------------|--------------------|
|-----------------|----------------|----------------|--------------------|
|-----------------|----------------|----------------|--------------------|


To Coda
E E E E Q E E +E Q E +E E E E E E E E Q E E +E Q E +E E E E
|-0---0----------|--------0-(0)---0-0-|-0---0-----------|--------0-(0)---0-0-|
|---5---5-4--5-7-|-(7)-5--------5-5-5-|---5---5-4--5-7--|-(7)-5--------5-5-5-|
|----------------|--------------------|-----------------|--------------------|
|----------------|--------------------|-----------------|--------------------|
|----------------|--------------------|-----------------|--------------------|
|----------------|--------------------|-----------------|--------------------|


Q E E +E E Q +E Q E Q Q Q Q E Q a E +E Q E +E E E E
|-0--0---------0--|-(0)------0-----|----0--0-0------|--------0-(0)-0-0-0-||
|------4-(4)-4----|-----4--4----4--|-5--5--5-5--5s7-|-(7)-5--5-(5)-5-5-5-||
|-----------------|----------------|----------------|--------------------||
|-----------------|----------------|----------------|--------------------||
|-----------------|----------------|----------------|--------------------||
|-----------------|----------------|----------------|--------------------||


Chorus
E A B5
H E E E E Q E E E E E E W +Q. E E E E E
|-0------0---0-|-0----0---0-----|----------|------------------|
|-0------0---0-|-0----0---0---2-|-2--------|-(2)---2---2------|
|-1------1---1-|-1----1---1---2-|-2--------|-(2)---2---2---4--|
|-2------2---2-|-2----2---2---2-|-2--------|-(2)---2---2---4--|
|-2------2---2-|-2----2---2---0-|-0--------|-(0)---0---0---2--|
|-0------0---0-|-0----0---0-----|----------|------------------|


A
W +Q. E E E Q W +W
|----------|----------------|----------|--------|
|----------|----------------|-2--------|-(2)----|
|-4--------|-(4)---4---4-4--|-2--------|-(2)----|
|-4--------|-(4)---4---4-4--|-2--------|-(2)----|
|-2--------|-(2)---2---2-2--|-0--------|-(0)----|
|----------|----------------|----------|--------|


1. 2.
E A
Q H. +W E E E E E E E E
|----0-------|-(0)---------||-----------------||
|----0-------|-(0)--------o||-2-2-2-2-2---2---||
|----1-------|-(1)---------||-2-2-2-2-2---2---||
|----2-------|-(2)---------||-2-2-2-2-2---2---||
|----2-------|-(2)--------o||-0-0-0-0-0---0---||
|-0--0-------|-(0)---------||-----------------||


Bridge
E A5
E E H. +W E E H. +H. E E
|-x---0-------|-(0)--------|-------------|---------------|
|-x---0-------|-(0)--------|-------------|---------------|
|-x---1-------|-(1)--------|-x-x-2-------|-(2)------x-x--|
|-x---2-------|-(2)--------|-x-x-2-------|-(2)------x-x--|
|-x---2-------|-(2)--------|-x-x-0-------|-(0)------x-x--|
|-x---0-------|-(0)--------|-------------|---------------|


E B5
E E E E H +W E E E E E E E E E E E E E E E E
|-x-x-0---0----|-(0)--------|-----------------|------------------||
|-x-x-0---0----|-(0)--------|-----------------|------------------||
|-x-x-1---1----|-(1)--------|-4-4-4-4-4-4-4-4-|-4-4-4-4-4-4-4-4--||
|-x-x-2---2----|-(2)--------|-4-4-4-4-4-4-4-4-|-4-4-4-4-4-4-4-4--||
|-x-x-2---2----|-(2)--------|-2-2-2-2-2-2-2-2-|-2-2-2-2-2-2-2-2--||
|-x-x-0---0----|-(0)--------|-----------------|------------------||


Guitar Solo
N.C.
E E E E E E E E E E E E E E E E E E E E E E E E
||------------------|-----------------|-----------------|
||o-----------------|---------0-0-0-0-|-----------------|
||------------------|---------4-4-4-4-|-----------------|
||----------2-2-2-2-|-4-4-4-4---------|---------2-2-2-2-|
||o-2-2-2-2---------|-----------------|-2-2-2-2---------|
||------------------|-----------------|-----------------|


E E E E +E +Q +E E E E E E E E E
|-------------------------|-----------------|
|-------0-----------------|-----------------|
|-------4-(4)b6==(4)r=(4)-|-----------------|
|-4-4-4-------------------|---------2-2-2-2-|
|-------------------------|-2-2-2-2---------|
|-------------------------|-----------------|


1.
E E E E E E E E E E E E E E E E
|-----------------|------------------|
|-----------------|------------------|
|---------4-4-4-4-|------------------|
|-4-4-4-4---------|---------2-2-2-2--|
|-----------------|-2-2-2-2----------|
|-----------------|------------------|


2.
D.S. al Coda
B
E E E E +E +Q +E E E Q E E Q E E E E E E Q
|--------------------------||---------------|-------------0--||
|-------0-----------------o||---------------|-4-4-4-4-4-4----||
|-------4-(4)b6==(4)r=(4)--||-4-4----4-4----|-4-4-4-4-4-4----||
|-4-4-4--------------------||---------------|-4-4-4-4-4-4----||
|-------------------------o||---------------|-2-2-2-2-2-2----||
|--------------------------||---------------|----------------||


&
N.C. A
E Q E +E E E E E E Q H Q E E +Q. S S
|------0-(0)-0-0-0-|-0-----------|--------------------|
|-7-5--5-(5)-5-5-5-|-5-----------|----------------2-2-|
|------------------|-------------|------4b6-(4)---2-2-|
|------------------|-------------|----------------2-2-|
|------------------|-------------|----------------0-0-|
|------------------|-------------|--------------------|


Chorus
E A
Q Q E Q. +E Q E +E Q E W +Q. E E E E E
|--------------|-----------------0-||-0--------|-(0)---0---0------|
|-2--2--2-2----|-(2)-2--2-(2)-2--0-||-0--------|-(0)---0---0---2--|
|-2--2--2-2----|-(2)-2--2-(2)-2--1-||-1--------|-(1)---1---1---2--|
|-2--2--2-2----|-(2)-2--2-(2)-2--2-||-2--------|-(2)---2---2---2--|
|-0--0--0-0----|-(0)-0--0-(0)-0--2-||-2--------|-(2)---2---2---0--|
|--------------|-----------------0-||-0--------|-(0)---0---0------|


B Bsus4 B
W +Q. E E E E E Q. E +Q. E E Q E +Q Q
|----------|-----------------|----------------|-----------------|
|-2--------|-(2)---2---2---2-|-4----4-(4)---5-|---4--4-(4)--4---|
|-2--------|-(2)---2---2---2-|-4----4-(4)---4-|---4--4-(4)--4---|
|-2--------|-(2)---2---2---2-|-4----4-(4)---4-|---4--4-(4)--4---|
|-0--------|-(0)---0---0---0-|-2----2-(2)---2-|---2--2-(2)--2---|
|----------|-----------------|----------------|-----------------|


BsusB BsBs4
Q. E +Q. E Q. E +Q E E Q. E +Q E E E Q E +Q E E
|----------------|-----------------|-----------------|------------------|
|-4----4-(4)---5-|-4----4-(4)--4-4-|-4----4-(4)--4---|-5-4--4-(4)--4----|
|-4----4-(4)---4-|-4----4-(4)--4-4-|-4----4-(4)--4---|-4-4--4-(4)--4----|
|-4----4-(4)---4-|-4----4-(4)--4-4-|-4----4-(4)--4---|-4-4--4-(4)--4----|
|-2----2-(2)---2-|-2----2-(2)--2-2-|-2----2-(2)--2---|-2-2--2-(2)--2----|
|----------------|-----------------|-----------------|------------------|


Outro
BsBs4 E
Q E E E E E E E E E E +Q E E Q. E E E E E E E E E +E Q E
|----------------|------------------||--0------0-0---0-|-0-0---0-(0)-0--0--|
|-4--4-4---4-4-4-|-5-4-4-4-(4)--4-4-||o-0------0-0---0-|-0-0---0-(0)-0--0--|
|-4--4-4---4-4-4-|-4-4-4-4-(4)--4-4-||--1------1-1---1-|-1-1---1-(1)-1--1--|
|-4--4-4---4-4-4-|-4-4-4-4-(4)--4-4-||--2------2-2---2-|-2-2---2-(2)-2--2--|
|-2--2-2---2-2-2-|-2-2-2-2-(2)--2-2-||o-2------2-2---2-|-2-2---2-(2)-2--2--|
|----------------|------------------||--0------0-0---0-|-0-0---0-(0)-0--0--|


A AsAs2 E
Q E E E E E E +E Q. Q E E Q. E E E E E
|----------------|-----------------|-0------0-0---0-|
|-2--2-0-2---2-2-|-(2)-2----2--2-2-|-0------0-0---0-|
|-2--2-2-2---2-2-|-(2)-2----2--2-2-|-1------1-1---1-|
|-2--2-2-2---2-2-|-(2)-2----2--2-2-|-2------2-2---2-|
|-0--0-0-0---0-0-|-(0)-0----0--0-0-|-2------2-2---2-|
|----------------|-----------------|-0------0-0---0-|


A AsAs2
E E E E +E Q E Q E E E E E E +E Q. Q E E 5x
|-0-0---0-(0)-0--0-|----------------|------------------||
|-0-0---0-(0)-0--0-|-2--2-0-2---2-2-|-(2)-2----2--2-2-o||
|-1-1---1-(1)-1--1-|-2--2-2-2---2-2-|-(2)-2----2--2-2--||
|-2-2---2-(2)-2--2-|-2--2-2-2---2-2-|-(2)-2----2--2-2--||
|-2-2---2-(2)-2--2-|-0--0-0-0---0-0-|-(0)-0----0--0-0-o||
|-0-0---0-(0)-0--0-|----------------|------------------||


Duration Legend
---------------
W - whole; H - half; Q - quarter; E - 8th; S - 16th; T - 32nd; X - 64th; a - acciaccatura
+ - note tied to previous; . - note dotted; .. - note double dotted
Uncapitalized letters represent notes that are staccato (1/2 duration)
Irregular groupings are notated above the duration line
Duration letters will always appear directly above the note/fret number it represents the
duration for. Duration letters with no fret number below them represent rests. Multi-
bar rests are notated in the form Wxn, where n is the number of bars to rest for. Low
melody durations appear below the staff

Tablature Legend
----------------
h - hammer-on
p - pull-off
b - bend
pb - pre-bend
r - bend release (if no number after the r, then release immediately)
/\ - slide into or out of (from/to "nowhere")
s - legato slide
S - shift slide
- natural harmonic
[n] - artificial harmonic
n(n) - tapped harmonic
~ - vibrato
tr - trill
T - tap
TP - trem. picking
PM - palm muting
\n/ - tremolo bar dip; n = amount to dip
\n - tremolo bar down
n/ - tremolo bar up
/n\ - tremolo bar inverted dip
= - hold bend; also acts as connecting device for hammers/pulls
<> - volume swell (louder/softer)
x - on rhythm slash represents muted slash
o - on rhythm slash represents single note slash

Misc Legend
-----------
| - bar
|| - double bar
||o - repeat start
o|| - repeat end
*| - double bar (ending)
: - bar (freetime)
$ - Segno
& - Coda
Tempo markers - = BPM(8/16=s8/s16), where s8 = swing 8ths, s16 = swing 16ths
Song info
Dancing With Myself
Billy Idol
2001
  • Rock
  • Pop Rock
  • Punk
Alternative tracks
Similar songs
Mr Tambourine Man - The Byrds
Leather and Lace - Stevie Nicks
They - Jem
Speed - Billy Idol

Hi! Hope you enjoy backing track experience.
If you want to help us in the development of the project, feel free to donate!