Shes Always A Woman - Billy Joel
00:00 / 00:00
Tabs and lyrics
Tunning: Standard (E A D G B e)
-------------------------------------------------------------------------------
She's always a Woman to Me - Billy Joel
-------------------------------------------------------------------------------
Tabbed by: Jarom!r
Email: lionfalcon@web.de

Tuning: Standart


[Intro]

e|--------------------|------------------------------------------------------|
B|-3--3--3--2--2-4--3-|-3------2------------3--------------2-------------3---|
G|-2--2--2--2--2-2--4-|-2------2------------2--------------2-------------2---|
D|-4--5--4--2--2-3--5-|-4------2------------4--------------2-------------0---|
A|--------------------|------------------------------------------------------|
E|--------------------|------------------------------------------------------|
She can kill with a smile, She can wound with her eyes

e|---------------------------------------------------------------------------|
B|----------3---------3---------------3-----2--0-----------------------------|
G|----------2---------4---------------2-----2--0-----------------------------|
D|----------4---------5---------------4-----2--0-----------------------------|
A|----------5----------------------------------------------------------------|
E|---------------------------------------------------------------------------|
She can ruin your faith with her casual lies

e|---------------------------------------------------------------------------|
B|---------2-------3--------------2------------2-----------------------------|
G|---------2-------2--------------2------------3-----------------------------|
D|---------2-------4--------------2------------4-----------------------------|
A|---------------------------------------------------------------------------|
E|---------------------------------------------------------------------------|
And she only reveals what she wants you to see

e|---------------------------------------------------------------------------|
B|------3-------------3--------------0---------2-----------------------------|
G|------4-------------0--------------0---------2-----------------------------|
D|------4-------------2--------------0---------2-----------------------------|
A|---------------------------------------------------------------------------|
E|---------------------------------------------------------------------------|
She hides like a child, But she's always a woman to

e|-------2-----------3-----------2-----------0-----------2-----------0------|
B|-----3---3-------3---3-------3---3-------2---2-------3---3-------2---2----|
G|---2-------2---2-------2---2-------2---2-------2---2-------2---2-------2--|
D|-0-----------0-----------0-----------------------0------------------------|
A|-------------------------------------0-----------------------0------------|
E|--------------------------------------------------------------------------|
me ----------------------------------------------------------------------| She
can lead you to love She can take you or

e|-------2-----------2-----------------------3-----------3-----------3-------|
B|-----3---3-------3---3-------------------0---0-------0---0-------0---0-----|
G|---2-------2---2-------2---2---2---2---0-------0---0-------0---0-------0---|
D|-0-----------0-----------0---2---4---5-----------4-----------2-------------|
A|---------------------------------------------------------------------------|
E|---------------------------------------------------------------------------|
leave you She can ask for the truth,But[*]never believe you

e|-------3-----------------------2-------------------------------------------|
B|-----0---0---------2---------3---3---------2-----------2-----------2-------|
G|---0-------0-----2---2-----2-------2-----2---2-------3---3-------3---3-----|
D|-5-------------2-------2-0-------------2-------2---4-------4---4-------4---|
A|-------------0-----------------------0-----------------------4-------------|
E|-------------------------------------------------2-------------------------|
And she'll take whatyougive her as long asits free Yeah, she

e|---------------------------------------------------------------------------|
B|-------3-----------3-----------0-----------2-------------------------------|
G|-----4---4-------4---4-------0---0-------2---2-----------------------------|
D|---4-------4---4-------4---0-------0---2-------2---------------------------|
A|-2-----------0-----------------------0-------------------------------------|
E|-------------------------3-------------------------------------------------|
steals like a thief [*] always a woman to

e|-------2-----------3-----------2-----------2---------------------------------|
B|-----3---3-------3---2-------3---3-------3---3---------3-----------3---------|
G|---2-------2---2-------2---2-------2---2-------2-----4---4-------4---4-------|
D|-0-----------0-----------0-------------------------4-------4---4-------4-----|
A|-------------------------------------4-----------2-----------0---------------|
E|-----------------------------------------------------------------------------|
me -----------------| Oooooh ---------------------|

e|---------------------------------------------------------------------------|
B|-------3-----------3-----------2-----------2-----------2-----------2-------|
G|-----4---4-------4---4-------2---2-------2---2-------2---2-------2---2-----|
D|---4-------4---4-------4---2-------2---2-------2---2-------2---2-------2---|
A|-------------------------0-----------------------------------4-------------|
E|-4-----------0-----------------------4-----------2-------------------------|
she takes care of herself She can wait if she wants

e|-------------------------------------------------------2-----------3-------|
B|-------0-----------0-----------0-----------0---------3---3-------3---3-----|
G|-----0---0-------0---0-------0---0-------0---0-----2-------2---2-------2---|
D|---0-------0---0-------0---0-------0---0-------0-0-----------0-------------|
A|-------------------------------------0-------------------------------------|
E|-3-----------2-----------0-------------------------------------------------|
She's ahead of her time

e|-------2-----------2-----------2-----------1-----------1-----------1-----------1-------|
B|-----3---3-------3---3-------3---2-------1---1-------1---1-------1---1-------1---1-----|
G|---2-------2---2-------2---2-------2---2-------2---2-------2---2-------2---2-------2---|
D|-0-----------0-----------------------0-------------------------------------------------|
A|-------------------------0-----------------------3-----------2-------------------------|
E|-------------------------------------------------------------------------3-------------|
Ooooooooh and she never
gives out

e|---------------------------------------------------------------------------|
B|-------1-----------1-----------1-----------1-----------3-----------3-------|
G|-----0---0-------0---0-------0---0-------0---0-------3---3-------3---3-----|
D|---2-------2---2-------2---2-------2---2-------2---3-------3---3-------3---|
A|-3-----------2-----------0-----------------------1-----------0-------------|
E|-------------------------------------3-------------------------------------|
gives out And she never gives in

e|---------------------------------------------------------------------------|
B|-------3-----------3-----------2-----------2-----------2-----------2-------|
G|-----3---3-------3---3-------2---2-------2---2-------2---2-------2---2-----|
D|---3-------3---3-------3---2-------2---4-------4---5-------5---4-------4---|
A|-------------------------0-----------0-----------0-----------0-------------|
E|-4-----------0-------------------------------------------------------------|
She just changes her mind

a little update for the ending of the last verse:

Bm Bm/A
and the most she will do
G D
is throw shadows at you
Em A D
but she's always a woman to me


this is the whole first stanza and the chorus. as far as i hear it, the pattern doesn't
differ during the bridge or the other stanzas, so i only put the text of the first
stanza and the chorus under the tab. you will have to figure out the timing of the
Tunning: Standard (E A D G B e)
#----------------------------------PLEASE NOTE---------------------------------#
#This file is the author's own work and represents their interpretation of the #
#song. You may only use this file for private study, scholarship, or research. #
#------------------------------------------------------------------------------#


Date: 11.04.2004
Tabbed by Peter Tuyp (peter.tuyp@wxs.nl)

Subject:
Billy Joel - She's always a woman


Capo on first fret

Intro:
D/f# G D/f# A
e|-2-----------3-----------2-----------0-----0-----------------------|
B|-3-----------3-----------3-----------2-----2-----------------------|
G|-2-----------4-----------2-----------2-----2-----------------------|
D|-4-----------5-----------4-----------2-----------------------------|
A|-------------------------------------------0-----------------------|
E|-------------------------------------------------------------------|

D/f# G D/f#
e|-2-----------3-----------2-----------------------------------------|
B|-3-----------3-----------3-----------------------------------------|
G|-2-----------4-----------2-----------------------------------------|
D|-4-----------5-----------4-----------------------------------------|
A|-------------------------------------------------------------------|
E|-------------------------------------------------------------------|

Verse 1:
A D A D
e|--------0-----------2-----------0-----------2----------------------|
B|--------2-----------3-----------2-----------3----------------------|
G|--------2-----------2-----------2-----------2----------------------|
D|--------------------0-----------------------0----------------------|
A|--------0-----------------------0----------------------------------|
E|-------------------------------------------------------------------|
She can kill with a smile she can wound with her eyes

d e f# G Bm Em
e|--------------------3-----------2-----------0----------------------|
B|--------------------0-----------3-----------0----------------------|
G|--------------------0-----------4-----------0----------------------|
D|--------0---2---4--------------------------------------------------|
A|--------------------------------2----------------------------------|
E|--------------------3-----------------------0----------------------|
She can ruin your faith with her casual lies

A D A F#
e|--------0-----------2-----------0-----------2----------------------|
B|--------2-----------3-----------2-----------2----------------------|
G|--------2-----------2-----------2-----------3----------------------|
D|--------------------0----------------------------------------------|
A|--------0-----------------------0----------------------------------|
E|--------------------------------------------2----------------------|
And she only reveals what she wants you to see

Bm Bm/a G A
e|--------2-----------2-----------3-----------0----------------------|
B|--------3-----------3-----------0-----------2----------------------|
G|--------4-----------4-----------0-----------2----------------------|
D|-------------------------------------------------------------------|
A|--------2-----------0-----------------------0----------------------|
E|--------------------------------3----------------------------------|
She hides like a child, but she's always a woman to me

verse 2:
D G D
e|-------2-----------3-----------2-----------------------------------|
B|-----3-----3-----3-----3-----3-----3-------------------------------|
G|---2-----2-----4-----4-----2-----2---------------------------------|
D|-0-----------5-----------0-----------------------------------------|
A|-------------------------------------------------------------------|
E|-------------------------------------------------------------------|
She can

A D A D
e|---0-----0-----2-----2-----0-----0-----2-----2---------------------|
B|-----2-----2-----3-----3-----2-----2-----3-----3-------------------|
G|-------2-----------2-----------2-----------2-----------------------|
D|-------------0-----------------------0-----------------------------|
A|-0-----------------------0-----------------------------------------|
E|-------------------------------------------------------------------|
lead you to love, she can take you or leave you

D/f# D/e D D/e D/f# G Bm Em
e|---2---2---------------2---3-----3-----2-----2-----0-----0---------|
B|-----------3---3---3---------0-----0-----3-----3-----0-----0-------|
G|-------------------------------0-----------4-----------0-----------|
D|-4---2---0---0---2---4---------------------------------------------|
A|-------------------------------------2-----------------------------|
E|-------------------------3-----------------------0-----------------|
She can ask for the truth, but she'll never believe you

D/f# A D A g F#
e|---2-----2-----0-----0-----2-----2-----0-------------2-----2-------|
B|-----3-----3-----2-----2-----3-----3-----2-------------2-----2-----|
G|-------2-----------2-----------2-----------2-------------3---------|
D|-4-----------------------0-----------------------------------------|
A|-------------0-----------------------0-----------------------------|
E|---------------------------------------------3-----2---------------|
And she'll take what you give her as long as it's free

f c#
a# Bm Bm/a G A D
e|---------2-----2-----2-----2-----3-----3-----0-----0-----2-----2---|
B|-----------3-----3-----3-----3-----0-----0-----2-----2-----3-----3-|
G|-------------4-----------4-----------0-----------2-----------2-----|
D|-------------------------------------------------------0-----------|
A|---1-4-2-----------0-----------------------0-----------------------|
E|-2-----------------------------3-----------------------------------|
Yeah she steals like a thief, but she's always a woman to me

Chorus:
Dsus4 D D/c#
e|---3-----3-----2-----2-----2-----2---------------------------------|
B|-----3-----3-----3-----3-----3-----3-------------------------------|
G|-------2-----------2-----------2-----------------------------------|
D|-0-----------0-----------------------------------------------------|
A|-------------------------4-----------------------------------------|
E|-------------------------------------------------------------------|

Bm Bm/a E/g# E
e|---2-----2-----2-----2-----4-----4-----4-----4---------------------|
B|-----3-----3-----3-----3-----5-----5-----5-----5-------------------|
G|-------4-----------4-----------4-----------4-----------------------|
D|-------------------------------------------------------------------|
A|-2-----------0-----------------------7-----------------------------|
E|-------------------------4-----------------------------------------|
Oh, she takes care of her-

A A/g# A/f# D
e|---0-----0-----0-----0-----0-----0-----2-----2---------------------|
B|-----2-----2-----2-----2-----2-----2-----3-----3-------------------|
G|-------2-----------2-----------2-----------2-----------------------|
D|-------------------------------------0-----------------------------|
A|-0-----------------------------------------------------------------|
E|-------------4-----------2-----------------------------------------|
self She can wait if she

G G/f# Em7 A
e|---3-----3-----3-----3-----0-----0-----0-----0---------------------|
B|-----0-----0-----0-----0-----0-----0-----2-----2-------------------|
G|-------0-----------0-----------0-----------2-----------------------|
D|-------------------------------------------------------------------|
A|-------------------------------------0-----------------------------|
E|-3-----------2-----------0-----------------------------------------|
wants She's ahead of her

D G D/f# A
e|---2-----2-----3-----3-----2-----2-----0-----0---------------------|
B|-----3-----3-----3-----3-----3-----3-----2-----2-------------------|
G|-------2-----------4-----------2-----------2-----------------------|
D|-0-----------5-----------4-----------------------------------------|
A|-------------------------------------0-----------------------------|
E|-------------------------------------------------------------------|
time

Dm Dm/c Dm/b G
e|---1-----1-----1-----1-----1-----1-----3-----3---------------------|
B|-----3-----3-----3-----3-----3-----3-----0-----0-------------------|
G|-------2-----------2-----------0-----------0-----------------------|
D|-0-----------------------------------------------------------------|
A|-------------3-----------2-----------------------------------------|
E|-------------------------------------3-----------------------------|
Oh, and she never gives

C C/b Fmaj7/a F
e|---0-----0-----0-----0-----0-----0-----1-----1---------------------|
B|-----1-----1-----1-----1-----1-----1-----1-----1-------------------|
G|-------0-----------0-----------2-----------2-----------------------|
D|-------------------------------------------------------------------|
A|-3-----------2-----------0-----------------------------------------|
E|-------------------------------------1-----------------------------|
out and she never gives

Bes Bes/a E/g# E
e|---1-----1-----1-----1-----4-----4-----4-----4---------------------|
B|-----3-----3-----3-----3-----5-----5-----5-----5-------------------|
G|-------3-----------3-----------4-----------4-----------------------|
D|-------------------------------------------------------------------|
A|-1-----------0-----------------------7-----------------------------|
E|-------------------------4-----------------------------------------|
in She just changes her

A A6
e|---0-----0-----0-----0---------------------------------------------|
B|-----2-----2-----2-----2-------------------------------------------|
G|-------2-----------------------------------------------------------|
D|-------------4-----4-----------------------------------------------|
A|-0-----------------------------------------------------------------|
E|-------------------------------------------------------------------|
mind

Verse 3:
A7 A6 D A D
e|---0-----0-----0-----0-----2-----2-----0-----0-----2-----2---------|
B|-----2-----2-----2-----2-----3-----3-----2-----2-----3-----3-------|
G|-0-----0-----------------------2-----------2-----------2-----------|
D|-------------4-----4-----0-----------------------0-----------------|
A|-------------------------------------0-----------------------------|
E|-------------------------------------------------------------------|
Yes She'll promise you more than the garden of Eden

D/f# D/e D D/e D/f# G Bm Em
e|---2---2---------------2---3-----3-----2-----2-----0-----0---------|
B|-----------3---3---3---------0-----0-----3-----3-----0-----0-------|
G|-------------------------------0-----------4-----------0-----------|
D|-4---2---0---0---2---4---------------------------------------------|
A|-------------------------------------2-----------------------------|
E|-------------------------3-----------------------0-----------------|
Then she can carelessly cut you and laugh while you're bleedin'

D/f# A D A g F#
e|---2-----2-----0-----0-----2-----2-----0-------------2-----2-------|
B|-----3-----3-----2-----2-----3-----3-----2-------------2-----2-----|
G|-------2-----------2-----------2-----------2-------------3---------|
D|-4-----------------------0-----------------------------------------|
A|-------------0-----------------------0-----------------------------|
E|---------------------------------------------3-----2---------------|
But she'll bring out the best and the worst you can be

f c#
a# Bm Bm/a G A D
e|---------2-----2-----2-----2-----3-----3-----0-----0-----2-----2---|
B|-----------3-----3-----3-----3-----0-----0-----2-----2-----3-----3-|
G|-------------4-----------4-----------0-----------2-----------2-----|
D|-------------------------------------------------------0-----------|
A|---1-4-2-----------0-----------------------0-----------------------|
E|-2-----------------------------3-----------------------------------|
Blame it all on yourself 'cause she's always a woman to me

Dsus4 D A D A F#
e|---3-----3-----2-----2-----0-----0-----2-----2-----0-----0-----2-----2---|
B|-----3-----3-----3-----3-----2-----2-----3-----3-----2-----2-----2-----2-|
G|-------2-----------2-----------2-----------2-----------2-----------3-----|
D|-0-----------0-----------------------0-----------------------------------|
A|-------------------------0-----------------------0-----------------------|
E|-------------------------------------------------------------2-----------|
Mm, m Mm, Mm Mm,

F/a# Bm Bm/a G A D
e|---2-----2-----2-----2-----2-----2-----3-----3-----0-----0-----2-----2---|
B|-----2-----2-----3-----3-----3-----3-----0-----0-----2-----2-----3-----3-|
G|-------3-----------4-----------4-----------0-----------2-----------2-----|
D|-------------------------------------------------------------0-----------|
A|-1-----------2-----------0-----------------------0-----------------------|
E|-------------------------------------3-----------------------------------|
Mm Mm Mm Mm Mm Mm

Chorus:
Dsus4 D D/c#
e|---3-----3-----2-----2-----2-----2---------------------------------|
B|-----3-----3-----3-----3-----3-----3-------------------------------|
G|-------2-----------2-----------2-----------------------------------|
D|-0-----------0-----------------------------------------------------|
A|-------------------------4-----------------------------------------|
E|-------------------------------------------------------------------|

Bm Bm/a E/g# E
e|---2-----2-----2-----2-----4-----4-----4-----4---------------------|
B|-----3-----3-----3-----3-----5-----5-----5-----5-------------------|
G|-------4-----------4-----------4-----------4-----------------------|
D|-------------------------------------------------------------------|
A|-2-----------0-----------------------7-----------------------------|
E|-------------------------4-----------------------------------------|
Oh, she takes care of her-

A A/g# A/f# D
e|---0-----0-----0-----0-----0-----0-----2-----2---------------------|
B|-----2-----2-----2-----2-----2-----2-----3-----3-------------------|
G|-------2-----------2-----------2-----------2-----------------------|
D|-------------------------------------0-----------------------------|
A|-0-----------------------------------------------------------------|
E|-------------4-----------2-----------------------------------------|
self She can wait if she

G G/f# Em7 A
e|---3-----3-----3-----3-----0-----0-----0-----0---------------------|
B|-----0-----0-----0-----0-----0-----0-----2-----2-------------------|
G|-------0-----------0-----------0-----------2-----------------------|
D|-------------------------------------------------------------------|
A|-------------------------------------0-----------------------------|
E|-3-----------2-----------0-----------------------------------------|
wants She's ahead of her

D G D/f# A
e|---2-----2-----3-----3-----2-----2-----0-----0---------------------|
B|-----3-----3-----3-----3-----3-----3-----2-----2-------------------|
G|-------2-----------4-----------2-----------2-----------------------|
D|-0-----------5-----------4-----------------------------------------|
A|-------------------------------------0-----------------------------|
E|-------------------------------------------------------------------|
time

Dm Dm/c Dm/b G
e|---1-----1-----1-----1-----1-----1-----3-----3---------------------|
B|-----3-----3-----3-----3-----3-----3-----0-----0-------------------|
G|-------2-----------2-----------0-----------0-----------------------|
D|-0-----------------------------------------------------------------|
A|-------------3-----------2-----------------------------------------|
E|-------------------------------------3-----------------------------|
Oh, and she never gives

C C/b Fmaj7/a F
e|---0-----0-----0-----0-----0-----0-----1-----1---------------------|
B|-----1-----1-----1-----1-----1-----1-----1-----1-------------------|
G|-------0-----------0-----------2-----------2-----------------------|
D|-------------------------------------------------------------------|
A|-3-----------2-----------0-----------------------------------------|
E|-------------------------------------1-----------------------------|
out and she never gives

Bes Bes/a E/g# E
e|---1-----1-----1-----1-----4-----4-----4-----4---------------------|
B|-----3-----3-----3-----3-----5-----5-----5-----5-------------------|
G|-------3-----------3-----------4-----------4-----------------------|
D|-------------------------------------------------------------------|
A|-1-----------0-----------------------7-----------------------------|
E|-------------------------4-----------------------------------------|
in She just changes her

A A6
e|---0-----0-----0-----0---------------------------------------------|
B|-----2-----2-----2-----2-------------------------------------------|
G|-------2-----------------------------------------------------------|
D|-------------4-----4-----------------------------------------------|
A|-0-----------------------------------------------------------------|
E|-------------------------------------------------------------------|
mind

Verse 4:
A7 A6 D A D
e|---0-----0-----0-----0-----2-----2-----0-----0-----2-----2---------|
B|-----2-----2-----2-----2-----3-----3-----2-----2-----3-----3-------|
G|-0-----0-----------------------2-----------2-----------2-----------|
D|-------------4-----4-----0-----------------------0-----------------|
A|-------------------------------------0-----------------------------|
E|-------------------------------------------------------------------|
She is frequently kind then she's suddenly cruel

D/f# D/e D D/e D/f# G Bm Em
e|---2---2---------------2---3-----3-----2-----2-----0-----0---------|
B|-----------3---3---3---------0-----0-----3-----3-----0-----0-------|
G|-------------------------------0-----------4-----------0-----------|
D|-4---2---0---0---2---4---------------------------------------------|
A|-------------------------------------2-----------------------------|
E|-------------------------3-----------------------0-----------------|
But she can do as she pleases she's nobody's fool

D/f# A D A g F#
e|---2-----2-----0-----0-----2-----2-----0-------------2-----2-------|
B|-----3-----3-----2-----2-----3-----3-----2-------------2-----2-----|
G|-------2-----------2-----------2-----------2-------------3---------|
D|-4-----------------------0-----------------------------------------|
A|-------------0-----------------------0-----------------------------|
E|---------------------------------------------3-----2---------------|
And she can't be convicted she's earned her degree

f c#
a# Bm Bm/a G G/f# Em A D
e|---------2-----2-----2-----2-----3-----3-----3-----3-----0-----0-----0-----0-----2-----2---|
B|-----------3-----3-----3-----3-----0-----0-----0-----0-----0-----0-----2-----2-----3-----3-|
G|-------------4-----------4-----------0-----------0-----------0-----------2-----------2-----|
D|-------------------------------------------------------------------------------0-----------|
A|---1-4-2-----------0-----------------------------------------------0-----------------------|
E|-2-----------------------------3-----------2-----------0-----------------------------------|
And the most she will do is trow shaddows at you but she's always a woman to me

Dsus4 D A D A F#
e|---3-----3-----2-----2-----0-----0-----2-----2-----0-----0-----2-----2---|
B|-----3-----3-----3-----3-----2-----2-----3-----3-----2-----2-----2-----2-|
G|-------2-----------2-----------2-----------2-----------2-----------3-----|
D|-0-----------0-----------------------0-----------------------------------|
A|-------------------------0-----------------------0-----------------------|
E|-------------------------------------------------------------2-----------|
Mm, m Mm, Mm Mm,

F/a# Bm Bm/a G A D Dsus4 D
e|---2-----2-------2-----------2------------3-----------0----------2-----------3-----------2-|
B|-----2-----2----3-----------3------------0-----------2----------3-----------3-----------3--|
G|-------3-------4-----------4------------0-----------2----------2-----------2-----------2---|
D|--------------4-----------4------------0-----------2----------0-----------0-----------0----|
A|-1-----------2-----------0------------2-----------0----------------------------------------|
E|-------------------------------------3-----------------------------------------------------|
Mm Mm Mm Mm Mm Mm
Tunning: Standard (E A D G B e)
-------------------------------------------------------------------------------
SHE'S ALWAYS A WOMAN - Billy Joel
-------------------------------------------------------------------------------
Tabbed by: asd20227
Email: timothy at gmail.com
Tuning: **** Drop D Tuning DADGBE ****
Capo: 1st
Key: Eb major



D Dsus4 D A A D Dsus4 D
e|----2------3------2------0----0--2------3------2-----|
B|----3------3------3------2----2--3------3------3-----|
G|----2------2------2------2----2--2------2------2-----|
D|-----------------------------------------------------|
A|-------------------------0---------------------------|
D|----0----------------------------0-------------------|

A D A D D
e|---------0-----------2---------------0-------------2-------------2---------|
B|---------2-----------3---------------2-------------3-------------3---------|
G|---------2-----------2---------------2-------------2-------------2---------|
D|---------------------0-----------------------------------------------------|
A|---------0---------------------------0-------------------------------------|
D|---------------------------------------------------0-------------0-2-4-----|

1. She can kill with a smile, she can wound with her eyes. She can ru - in your

G Gmaj7 G6 Gmaj7 A7 D A
e|---3--------------2-------0-----2------------0--------2------------0-------|
B|---0--------------0-------0-----0------------2--------3------------2-------|
G|---0--------------0-------0-----0------------0--------2------------2-------|
D|------------------------------------------------------0--------------------|
A|---------------------------------------------0---------------------0-------|
D|---5-----------------------------------------------------------------------|

faith with her casu - al lies. And she only reveals what she wants you to

F#m Bm Bm/A G A7
e|--2---------2--------------2-----------------------------------------------|
B|--2---------3--------------3------------0---------2------------------------|
G|--3---------4--------------4------------0---------0------------------------|
D|----------------------------------------0---------2------------------------|
A|------------2--------------0----------------------0------------------------|
D|--4-------------------------------------5----------------------------------|

see. She hides like a child but she's always a woman to

D Dsus4 D A D
e|---------------------------------------------0-----0------2-----2----------|
B|------3-----3------3-----3------3-----3----2-----2------3-----3------------|
G|----2-----2------2-----2------2-----2----2-----2------2-----2--------------|
D|--4-----4------5-----5------4-----4-------------------0--------------------|
A|---------------0-------------------------0---------------------------------|
D|--0-------------------------0----------------------------------------------|

me. 2. She can lead you to love, she can

A D G
e|------0-----0------2-----2--2---0----------2---2---5------3-----3------------|
B|----2-----2------3-----3------------3------3---3--------0-----0--------------|
G|--2-----2------2-----2--------2---2---2---------------0-----0----------------|
D|-----------------------------------------------------------------------------|
A|--0--------------------------------------------------------------------------|
D|---------------0-------------------------0---2---4----5----------------------|

take you or leave you. She can ask for the truth, but she'll

Gmaj7/D G6/E Gmaj7 A7 D
e|------2-----2------0-----0------2-----2------0-----0------2-----2----------|
B|----0-----0------0-----0------0-----0------2-----2------3-----3------------|
G|--0-----0------0-----0------0-----0------0-----0------2-----2--------------|
D|---------------------------------------------------------------------------|
A|-----------------------------------------0---------------------------------|
D|--0------------2--------------------------------------0--------------------|

never be - lieve you. And she'll take what you give her as

A7 F#m Bm Bm/A
e|------0-----0----------2----2----2----0--------2-----2------2-----2--------|
B|----2-----2--------2---2----2----------------3-----3------3-----3----------|
G|--0-----0--------3---3---------------------4-----4------4-----4------------|
D|---------------------------------------------------------------------------|
A|--0------------------------------1/---4----2------------0------------------|
D|---------------4-----------------------------------------------------------|

long as it's free. Yeah she steals like a thief but she's

G A7 D Dsus4 D
e|-----0-----0-----0-----0------------------------------2-----2--------2-----|
B|---0-----0-----2-----2-------3-----3-----3-----3----3-----3----3---3-----3-|
G|-0-----0-----0-----0-------2-----2-----2-----2----2-----2--------2-----2---|
D|-------------------------4-----4-----5-----5------0------------------------|
A|-------------0-----------------------0-------------------------4-----------|
D|-5-----------------------0-------------------------------------------------|

always a woman to me.



--Chorus--

Bm Bm/A E/G# E A
e||------2-----2------2-----2------4-----4------0-----0----------------------|
B||----3-----3------3-----3------5-----5------0-----0--------2-----2---------|
G||--4-----4------4-----4------4-----4------1-----1--------2-----2-----------|
D||------------------------------------------------------2-----2-------------|
A||--2------------0--------------------------------------0-------------------|
D||----------------------------6------------2--------------------------------|

Oh... She takes care of her - self

A/G# A/F# D G G/F#
e|---------------------------------------------------------------------------|
B|---------------------2----------3-----3------0-----0------0-----0----------|
G|--------6------2---2---2------2-----2------0-----0------0-----0------------|
D|--7---7---7------2-------2--4-----4------0-----0------0-----0--------------|
A|----7-------7--------------------------------------------------------------|
D|--6------------4------------0------------5------------4--------------------|

She can wait if she wants

G/E A7 D Dsus4/A D Asus4
e|------------------0-----0-------2------------3------------2------0-------0-|
B|-----0-----0----2-----2-------3---3--------3---3--------3---3----------3---|
G|---0-----0----0-----0-------2-------2----2-------2----2-------2------2-----|
D|-0-----0--------------------------------------------0--------------2-------|
A|--------------0------------------------0-------------------------0---------|
D|-2------------------------0------------------------------------------------|

She's a - head of her time

Dm7 Dm7/C G7/B G C
e|------1-----1------1-----1------1-----1------3-----3------0-----0----------|
B|----1-----1------1-----1------0-----0------0-----0------1-----1------------|
G|--2-----2------2-----2------0-----0------0-----0------0-----0--------------|
D|--0------------------------------------------------------------------------|
A|---------------3------------2-------------------------3--------------------|
D|-----------------------------------------5---------------------------------|

Oh... and she never gives out

C/B Am F Bb Bb/A
e|--------0------------0----------1-----1------1-----1-----1-----1-----------|
B|--1---1---1----1---1---1------1-----1------3-----3-----3-----3-------------|
G|----0-------0----2-------2--2-----2------3-----3-----3-----3---------------|
D|---------------------------------------------------------------------------|
A|--2------------0-------------------------1-----------0---------------------|
D|----------------------------3----------------------------------------------|

and she never gives in

E/G# E A A6 A7
e|------4-----4------0-----0------0-----0------2------2------3-----3--------||
B|----5-----5------0-----0------2-----2------2------2------2-----2----------||
G|--4-----4------1-----1------2-----2------2------2------2-----2------------||
D|--------------------------------------------------------------------------||
A|----------------------------0---------------------------------------------||
D|--6------------2----------------------------------------------------------|| -- Chorus
ends --
^-- ** next verse
starts here **
She just changes her mind

A D
e|------------------0-----0------2-----2----------|
B|----------------2-----2------3-----3------------|
G|--------------2-----2------2-----2--------------|
D|---------------------------0--------------------|
A|--------------0---------------------------------|
D|------------------------------------------------|

3. And she'll promise you more than the

A D G
e|------0-----0------2-----2--2---0----------2---2---5------3-----3------------|
B|----2-----2------3-----3------------3------3---3--------0-----0--------------|
G|--2-----2------2-----2--------2---2---2---------------0-----0----------------|
D|-----------------------------------------------------------------------------|
A|--0--------------------------------------------------------------------------|
D|---------------0-------------------------0---2---4----5----------------------|

garden of Eden. Then she'll carelessly cut you and

Gmaj7/D G6/E Gmaj7 A7 D
e|------2-----2------0-----0------2-----2------0-----0------2-----2----------|
B|----0-----0------0-----0------0-----0------2-----2------3-----3------------|
G|--0-----0------0-----0------0-----0------0-----0------2-----2--------------|
D|---------------------------------------------------------------------------|
A|-----------------------------------------0---------------------------------|
D|--0------------2--------------------------------------0--------------------|

laugh while you're bleeding. But she'll bring out the best and the

A7 F#m Bm Bm/A
e|------0-----0----------2----2----2----0--------2-----2------2-----2--------|
B|----2-----2--------2---2----2----------------3-----3------3-----3----------|
G|--0-----0--------3---3---------------------4-----4------4-----4------------|
D|---------------------------------------------------------------------------|
A|--0------------------------------1/---4----2------------0------------------|
D|---------------4-----------------------------------------------------------|

worst you can be. Blame it all on yourself cause she's

G6 A7 D Dsus4 D
e|-----0-----0-----0-----0---------------------------------------------------|
B|---0-----0-----2-----2-------3-----3-----3-----3------3-----3--------------|
G|-0-----0-----0-----0-------2-----2-----2-----2------2-----2----------------|
D|-------------------------4-----4-----5-----5------4-----4------------------|
A|-------------0-----------------------0-------------------------------------|
D|-5-----------------------0------------------------0------------------------|

always a woman to me. (hum starts) ------

A7 D
e|------0-----0------2-----2----------|
B|----2-----2------3-----3------------|
G|--0-----0------2-----2--------------|
D|------------------------------------|
A|--0---------------------------------|
D|---------------0--------------------|

----- (hum) -----

A7 F#m Bm Bm/A
e|------0-----0------2-----2-----2-----2---------2-----2------2-----2--------|
B|----2-----2------2-----2-----2-----2---------3-----3------3-----3----------|
G|--0-----0------3-----3-----3-----3---------4-----4------4-----4------------|
D|---------------------------------------------------------------------------|
A|--0----------------------------------------2------------0------------------|
D|---------------4-----------------------------------------------------------|

----- (hum) -----

G6 A7 D Dsus4 D
e|-----0-----0-----0-----0------------------------------2-----2--------2-----|
B|---0-----0-----2-----2-------3-----3-----3-----3----3-----3----3---3-----3-|
G|-0-----0-----0-----0-------2-----2-----2-----2----2-----2--------2-----2---|
D|-------------------------4-----4-----5-----5------0------------------------|
A|-------------0-----------------------0-------------------------4-----------|
D|-5-----------------------0-------------------------------------------------|

----- (hum ends)

Repeat Chorus

A D A D
e|-------------0-----0------2-----2------0-----0------2-----2--2---0---------|
B|-----------2-----2------3-----3------2-----2------3-----3------------3-----|
G|---------2-----2------2-----2------2-----2------2-----2--------2---2---2---|
D|----------------------0----------------------------------------------------|
A|---------0-------------------------0---------------------------------------|
D|------------------------------------------------0--------------------------|

4. She's frequently kind and she's suddenly cruel. She can

G Gmaj7/D G6/E Gmaj7
e|----2---2---5------3-----3------2-----2------0-----0------2-----2----------|
B|----3---3--------0-----0------0-----0------0-----0------0-----0------------|
G|---------------0-----0------0-----0------0-----0------0-----0--------------|
D|---------------------------------------------------------------------------|
A|---------------------------------------------------------------------------|
D|--0---2---4----5------------0------------2---------------------------------|

do as she pleases. She's nobody's fool. But she

A7 D A7 F#m
e|------0-----0------2-----2------0-----0----------2----2--------------------|
B|----2-----2------3-----3------2-----2--------2---2----2--------------------|
G|--0-----0------2-----2------0-----0--------3---3---------------------------|
D|---------------------------------------------------------------------------|
A|--0-------------------------0----------------------------------------------|
D|---------------0-------------------------4---------------------------------|

can't be con - victed she's earned her degree. And the

Bm Bm/A G D Em
e|------2-----2------2-----2------------------------------0-----0------------|
B|----3-----3------3-----3--------0-----0-----3-----3---0-----0--------------|
G|--4-----4------4-----4--------0-----0-----2-----2---0-----0----------------|
D|----------------------------0-----0-----4-----4----------------------------|
A|--2------------0-----------------------------------------------------------|
D|----------------------------5-----------0-----------2----------------------|

most she will do is throw shadows at you but she's always a

A7 D Dsus4/A D A7 D
e|-----0-----0-----------------------------------------0-----0-----2-----2--|
B|---2-----2-------3-----3-----3-----3-----3-----3---2-----2-----3-----3----|
G|-0-----0-------2-----2-----2-----2-----2-----2---0-----0-----2-----2------|
D|-------------4-----4-----5-----5-----4-----4------------------------------|
A|-0-----------------------0-----------------------0------------------------|
D|-------------0-----------------------0-----------------------0------------|

woman to me. (hum starts) ------

A7 F#m Bm Bm/A G A7 D Dsus4 D
e|------0-----0------2-----2-----2-----2-----2----2----0----0----2---3---2--|
B|----2-----2------2-----2-----2-----2-------3----3----0----2----3---3---3--|
G|--0-----0------3-----3-----3-----3---------4----4----0----0----2---2---2--|
D|--------------------------------------------------------------------------|
A|--0----------------------------------------2----0---------0---------------|
D|---------------4-------------------------------------5---------0----------|

----- (hum ends)
Song info
Shes Always A Woman
Billy Joel
2001
  • Pop
  • Rock
  • Ballad
  • Pop Rock
  • Soft Rock
Similar songs
Its My Life - Bon Jovi
Baby Come Back - Player
Quand La Musique Est Bonne - Jean-Jacques Goldman
All You Need Is Love - The Beatles
We Got The Beat - Go Gos

Hi! Hope you enjoy backing track experience.
If you want to help us in the development of the project, feel free to donate!