Children Of The Grave - Black Sabbath
00:00 / 00:00
Tabs and lyrics
Tunning: Standard (E A D G B e)
Black Sabbath - Children of the Grave

[Intro]
e:--------------------------|
B:--------------------------|
G:o------------------------o|
D:o------------------------o|
A:--------------------------|
E:----0---0----0-0-0--------|
PM--------------|

e:----------------------------------|
B:----------------------------------|
G:----------------------------------|
D:---------------------9------------|
A:---------------------7------------|
E:---0---0---0-0-0--0---------------|
PM----------------|

[Riff 1]

e:----------------------------------------------------------------------|
B:----------------------------------------------------------------------|
G:o--------------------------------------------------------------------o|
D:o--------------------------------------------------------------------o|
A:----------7-7-7-------------7-7-7---------------------10--9-----------|
E:-0---0----0-0-0----0---0----0-0-0----0---0----0-0-0---8---7-----------|

[Riff 2]

e:--------------------------------------------------|
B:--------------------------------------------------|
G:--------------------------------------------------|
D:--------------------------------------------------|
A:-12-12/14~--17-17~\--10-10--10-10-12-12---12--12--|
E:-10-10/12~--15-15~\--8--8~--8--8--10-10~--10--10\-|

[Riff 3]

e:----------------------------------------------------------------------|
B:----------------------------------------------------------------------|
G:o--------------------------------------------------------------------o|
D:o--------------------------------------------------------------------o|
A:----------7-7-7-----------7-7-7-----------7-7-7--------5--------------|
E:--0---0---0-0-0---0---0---0-0-0----0--0---0-0-0----0---3--------------|

[Fill 1]

e:---15b16-------|
B:---18b19-------|
G:---------------|
D:---------------|
A:---------------|
E:---------------|

[Riff 4]

e:----------------------------------------------------------------------|
B:----------------------------------------------------------------------|
G:----------------------------------------------------------------------|
D:----------------------------------------------------------------------|
A:---------7-7-7----------7-7-7----------------------------5------------|
E:-0---0---0-0-0---0---0--0-0-0----0--0--0-0-0--0-0-0--5h7--------------|

[Riff 5]

e:----------------------------------------------------------------------|
B:----------------------------------------------------------------------|
G:o--------------------------------------------------------------------o|
D:o----------------------2------------------------2--------------------o|
A:--------0--2--0--1--2-----------------0--1--2------1--0---------------|
E:--0--3--------------------------0--3----------------------------------|

[Riff 6]

e:----------------------------------------------------------------------|
B:----------------------------------------------------------------------|
G:o--------------------------------------------------------------------o|
D:o--------------------------------------------------------------------o|
A:--14~--17--14--9--8~--8--9--11-12--14---17--14--12--11~-11~-12~-------|
E:--12~--15--12--7--6~--6--7--9--10--12~--15--12--10--9~--9~--10~-------|

Progression:

[Intro] x14
[Riff 1] x2
[Riff 2] x1
[Riff 1] x2
[Riff 2] x1
[Riff 1] x2

With [Riff 3]:

Revolution in their minds, [Fill 1] the children start to march [Fill 1]
Against the world in which they have to live in [Fill 1]
Oh the hate that's in their hearts. [Fill 1]
They're tired of being pushed around [Fill 1] and told just what to do.
[Fill 1]
They'll fight the world until they've won [Fill 1]

With [Riff 4]:

and love comes flowing through, yeah!

[Riff 2] x1
[Riff 1] x2

With [Riff 3]:

Children of tomorrow live in [Fill 1] the tears that fall today. [Fill 1]
Will the sunrise of tomorrow bring in [Fill 1] peace in any way? [Fill 1]
Must the world live in the shadow [Fill 1] of atomic fear? [Fill 1]
Can they win the fight for peace [Fill 1]

With [Riff 4]:

or will they disappear? Yeah!

[Riff 2] x1
[Riff 5] x4

[Riff 6] x2

[Riff 1] x2
[Riff 2] x1
[Riff 1] x2

With [Riff 3]:

So you children of the world [Fill 1] listen to what I say. [Fill 1]
If you want a better place to live in, [Fill 1] spread the words today.
[Fill 1]
Show the world that love is still [Fill 1] alive, you must be brave.
[Fill 1]
Or you children of today [Fill 1]

With [Riff 4]:

are children of the grave, YEAH!!!!

[Riff 2] x1

[Guitar Solo]

e:-12-----12~----12-----12~----------------12-12---------------------|
B:-15b17--15b17~-15b17--15b17~-----15b17----------15p12--------------|
G:-------------------------------------------------------14b16r14----|
D:-------------------------------------------------------------------|
A:-------------------------------------------------------------------|
E:-------------------------------------------------------------------|

e:---------------------------12---------12----------------------------|
B:------------------------12----15b17------15p12----------------------|
G:12-14p12----12--14b16---------------------------14b16r14p12--14p12--|
D:---------14---------------------------------------------------------|
A:--------------------------------------------------------------------|
E:--------------------------------------------------------------------|

e:--------------------------------------12---------12---------12-----|
B:-----------------------------------12----15b17-------15b17---------|
G:-----12-----------------12-14b16-----------------------------------|
D:--14-----14p12-14p12h14--------------------------------------------|
A:-------------------------------------------------------------------|
E:-------------------------------------------------------------------|

e:-15p12--------------12---------------------------------------------|
B:-------15--15b17--------15p12--------------------------------------|
G:------------------------------15p14p12-14p12-----12----------------|
D:----------------------------------------------14----14p12-14p12----|
A:----------------------------------------------------------------14-|
E:-------------------------------------------------------------------|

e:----------------------------------------------------12-------------|
B:-------------------------------------------------12----15p12-------|
G:--------------------------------------12--14b16--------------------|
D:-12--------------------------12-12h14------------------------------|
A:----14s12p10--12p10h12-12s14---------------------------------------|
E:-------------------------------------------------------------------|

e:--------15--17h18p17p15--17h18p17p15--17h18p17p15--17p15----15-----|
B:-12s17---------------------------------------------------17--------|
G:-------------------------------------------------------------------|
D:-------------------------------------------------------------------|
A:-------------------------------------------------------------------|
E:-------------------------------------------------------------------|

e:---------------------------------------12---------12---------------|
B:--17p15-----------------------------------15b17------15p12---------|
G:--------16s14p12--14p12----12--14b16-------------------------------|
D:------------------------14-----------------------------------------|
A:-------------------------------------------------------------------|
E:-------------------------------------------------------------------|

e:-------------------------------------------------------------12---|
B:----------------------------------------------------------12------|
G:--14b16r14p12--14p12-------12------------------12--14b16----------|
D:------------------------14----14p12--14p12h14---------------------|
A:------------------------------------------------------------------|
E:------------------------------------------------------------------|

e:-----------12--15p12------------12---------------------------------|
B:--15b17--------------15-15b17-------15p12--------------------------|
G:------------------------------------------15p14p12--14p12----12-14-|
D:----------------------------------------------------------14-------|
A:-------------------------------------------------------------------|
E:-------------------------------------------------------------------|

e:-----12------------------------------------------------------------|
B:--12-----15p12-----------------------------------------------------|
G:---------------15p14p12--14p12-----12------------------------------|
D:-------------------------------14------14p12--14p12-----12---------|
A:-----------------------------------------------------14----14s12p10|
E:-------------------------------------------------------------------|

e:-------------------------------------------------------------------|
B:-------------------------------------------------------------------|
G:-------------------------------------------------------------------|
D:-------------------------------------------------------------------|
A:-12p10-----10h12-----10----7---------------------------------------|
E:-------12------------------0-----9---------------------------------|

[Riff 2] x1

[Outro] - hold bend and play each double stop twice; repeat whole thing 3
times
this one
only once end
e:-12--------14--------15--------16--------17--------17\-|--------|
B:-15b17-----17b19-----18b20-----19b21-----20b22---------|--------|
G:-------------------------------------------------------|--------|
D:-------------------------------------------------------|---9~~~-|
A:-------------------------------------------------------|---7~~~-|
E:-------------------------------------------------------|---0~~~-|

comments, corrections, hate mail or death threats to -
clangerfreak@hotmail.com

~*jinxx*~
Tunning: Standard (E A D G B e)
e|---------------------------------------------------------------------|
B|---------------------------------------------------------------------|
G|---------------------------------------------------------------------|
D|----------------------------------------------------10--9------------|
A|----------------------------------------------------10--9------------|
E|-0---0----0-0-0----0---0----0-0-0----0---0----0-0-0--8--7------------|

e|-------------------------------------------------|
B|-------------------------------------------------|
G|-------------------------------------------------|
D|-------------------------------------------------|
A|---12/14--17--17-10-----10-/12-------12\---------|
E|---10/12--15--15--8------8-/10-------10\---------|

e|----------------------------------------------------------------------|
B|----------------------------------------------------------------------|
G|----------------------------------------------------------------------|
D|----------------------------------------------------------------------|
A|-------------------------------------------------------5--------------|
E|--0---0---0-0-0---0---0---0-0-0----0--0---0-0-0----0---3--------------|

e|---15----------|
B|---18^---------|
G|---------------|
D|---------------|
A|---------------|
E|---------------|

e|----------------------------------------------------------------------|
B|----------------------------------------------------------------------|
G|----------------------------------------------------------------------|
D|-----------------------2------------------------2---------------------|
A|--------0--2--0--1--2-----------------0--1--2------1--0---------------|
E|--0--3--------------------------0--3----------------------------------|

e|----------------------------------------------------------------------|
B|----------------------------------------------------------------------|
G|----------------------------------------------------------------------|
D|---9----12--9---------------------9---12--9---------------------------|
A|---7----10--7--9--8---8--9-11-12--7---10--7--12-11--11-12-------------|
E|--------------x7--6---6--7--9-10------------x10--9---9-10-------------|

Solo:
e|--12--12-----12--12-----12-(12)(12)---------------------------|
B|--15^-15^----15^-15^----15^(15)(15)15p12----------------------|
G|----------------------------------------14^-12-12-14-12----12-|
D|--------------------------------------------------------14----|
A|--------------------------------------------------------------|
E|--------------------------------------------------------------|

e|------12---12-------------------|-----------------------------12-|
B|----12--15^---15p12-------------|---------------------------12---|
G|-14^---------------14^-(12--14)-|-12--12--------------12-14^-----|
D|--------------------------------|---14--14-12-14-12h14-----------|
A|--------------------------------|--------------------------------|
E|--------------------------------|--------------------------------|

e|------12----------------------------|-------------------------------------|
B|-15^------15p12---------------------|-------------------------------------|
G|---------------14^-14-12-14--12--12-|-------------------------------------|
D|-------------------------------14---|-14-12-14--12---12----------------12-|
A|------------------------------------|-------------14----14-12-10-12/14----|
E|------------------------------------|-------------------------------------|

e|---------------12----------------|-----------------------15----|
B|-------------12--15p12-----------|-------15-12-15-12-/17-------|
G|-------12-14^---------14^-12--12-|-14-12-----------------------|
D|-12h14----------------------14---|-----------------------------|
A|---------------------------------|-----------------------------|
E|---------------------------------|-----------------------------|

e|-17/18p15--17/18p15--17/18p15--17/18p15-|-17p15----15-----------------------|
B|----------------------------------------|------17----1715-------------------|
G|----------------------------------------|----------------16\1412-1412----12-|
D|----------------------------------------|-----------------------------14----|
A|----------------------------------------|-----------------------------------|
E|----------------------------------------|-----------------------------------|

e|------12----12----------------|---------------12-----12----------------|
B|--------15^-----15p12---------|-----------------15^-----15p12----------|
G|-14^-----------------14^^--14-|-12----12-14^------------------14^^p12--|
D|-------------------------14---|-----14---------------------------------|
A|------------------------------|----------------------------------------|
E|------------------------------|----------------------------------------|

e|-------------------------------|--------------12--------------------|
B|-------------------------------|-----------------15p12--------------|
G|-14-12----12----------------12-|-14-(12)-14^-----------14p12----12--|
D|-------14----14p12-14-12h14----|-----------------------------14-----|
A|-------------------------------|------------------------------------|
E|-------------------------------|------------------------------------|

e|-------------------------------------|------------------------------|
B|-------------------------------------|------------------------------|
G|-------------------------------------|--------------12--------------|
D|-14-12-14-12----12-------------------|-----12-12h14----14p12--------|
A|-------------14----14\12-10-12-10-12/|/14---------------------7--4--|
E|-------------------------------------|------------------------------|

[Outro]
e|---12--12----14--14---15--15---16--16---17--17\-----------|
B|---15^-15^---17^-17^--18^-18^--19^-19^--20^---------------|
G|----------------------------------------------------------|
D|----------------------------------------------------------|
A|----------------------------------------------------------|
E|----------------------------------------------------------|
Tunning: Standard (E A D G B e)
This is the right way to play this,cause no one can seem to get it even remotly close.


Intro/Main Riff x2
|--------------------------------------------------------------------------|
|--------------------------------------------------------------------------|
|--------------------------------------------------------------------------|
|--------------------------------------------------------------------------|
|11---11-11-11-11----11-11-11-11----11-11-11-11----7-6---------------------|
|9----9--9--9--9-----9--9--9--9-----9--9--9--9-----5-4---------------------|

Riff 2 x1
|--------------------------------------------------------------------------|
|--------------------------------------------------------------------------|
|--------------------------------------------------------------------------|
|4\6--7----2---2-2-4---4---------------------------------------------------|
|2\4--9----0---0-0-2---2---------------------------------------------------|
|--------------------------------------------------------------------------|


Verse guitar 1
|--------------------------------------------------------------------------|
|--------------------------------------------------------------------------|
|--------------------------------------------------------------------------|
|--------------------------------------------------------------------------|
|11---11-11-11-11----11-11-11-11----11-11-11-11----7-----------------------|
|9----9--9--9--9-----9--9--9--9-----9--9--9--9-----5-----------------------|

Verse guitar 2 bend
|---------------------------------------------12---------------------------|
|--------------------------------------------------------------------------|
|--------------------------------------------------------------------------|
|--------------------------------------------------------------------------|
|11---11-11-11-11----11-11-11-11----11-11-11-11----------------------------|
|9----9--9--9--9-----9--9--9--9-----9--9--9--9-----------------------------|

Play however many times

Other riff
|--------------------------------------------------------------------------|
|--------------------------------------------------------------------------|
|--------------------------------------------------------------------------|
|--------------11----------------------------------------------------------|
|-----8-9-10-11---------8-9-10-9-8-----------------------------------------|
|8-11---------------8-11---------------------------------------------------|

Other riff 2
|--------------------------------------------------------------------------|
|--------------------------------------------------------------------------|
|--------------------------------------------------------------------------|
|--------------------------------------------------------------------------|
|7--10--7--5--4--2\3\4-----------------------------------------------------|
|5--8---5--3--2--4\5\6-----------------------------------------------------|
Tunning: Standard (E A D G B e)
Tuning 1 1/2 steps down - C# F# B E G# C#

This song is one of the greatest sabbath songs, so i decided to tab it. this is my first
so it may not be perfect. - A note for morons - as stated above - ITS NOT IN STANDARD
Dont give it a low rating just cause your dumb and it doesnt sound right because of the tuning.
email me with any corrections or concerns at Dougisgod1313@sbcglobal.net

Key


[Intro]

(Moderate)

e|------------------------------|
B|------------------------------|
G|------------------------------|
D|------------------------------|
A|------------------------------|
E|-0--0--0--0-0-0-0--0--0-0-0---|
PM-----------------------------|(x7)

e|-----------------------------|
B|-----------------------------|
G|-----------------------------|
D|-----------------------------|
A|---------------12------------|
E|-0--0--0-0-0-0-14------------|
PM----------------------------|

e|----------------------------------------------------|
B|----------------------------------------------------|
G|----------------------------------------------------|
D|----------------------------------------------------|
A|-----7-7-7---------7-7-7---------7-7-7-10--9--12\14-|
E|-0-0-0-0-0-0--0--0-0-0-0-0--0--0-0-0-0--8--7--10\12-|
pm---------------------------------------------------|

e|----------------------------------------------------|
B|----------------------------------------------------|
G|----------------------------------------------------|
D|----------------------------------------------------|
A|-17-17---10---10------10--10--12-12------12-12--10\-|
E|-15-15---8----8-------8---8---10-10------10-10--12\-|

e|-----------------------------------------------|
B|-----------------------------------------------|
G|-----------------------------------------------|
D|-----------------------------------------------|
A|-----7-7-7---------7-7-7---------7-7-7-10--9---|
E|-0-0-0-0-0-0--0--0-0-0-0-0--0--0-0-0-0--8--7---|
pm----------------------------------------------|(X2)


[Verse 1]

e|-------------------------------------------------------|
B|-------------------------------------------------------|
G|-------------------------------------------------------|
D|-------------------------------------------------------|
A|-------7-7-7-----7-7-7----------7-7-7--------7-7-7---5-|
E|-0--0--0-0-0--0--0-0-0-0--0--0--0-0-0--0--0--0-0-0-0-3-|
pm------------------------------------------------------|

e|-------------------------------------------------------|
B|-------------------------------------------------------|
G|-------------------------------------------------------|
D|-------------------------------------------------------|
A|-------7-7-7-----7-7-7----------7-7-7--------7-7-7---5-|
E|-0--0--0-0-0--0--0-0-0-0--0--0--0-0-0--0--0--0-0-0-0-3-|
pm------------------------------------------------------|

e|-------------------------------------------------------|
B|-------------------------------------------------------|
G|-------------------------------------------------------|
D|-------------------------------------------------------|
A|-------7-7-7-----7-7-7----------7-7-7--------7-7-7---5-|
E|-0--0--0-0-0--0--0-0-0-0--0--0--0-0-0--0--0--0-0-0-0-3-|
pm------------------------------------------------------|

e|-------------------------------------------------------|
B|-------------------------------------------------------|
G|-------------------------------------------------------|
D|-------------------------------------------------------|
A|-------7-7-7-----7-7-7----------7-7-7--------7-7-7---5-|
E|-0--0--0-0-0--0--0-0-0-0--0--0--0-0-0--0--0--0-0-0-0-3-|
pm------------------------------------------------------|

e|-------------------------------------------------------|
B|-------------------------------------------------------|
G|-------------------------------------------------------|
D|-------------------------------------------------------|
A|-------7-7-7-----7-7-7----------7-7-7--------7-7-7---5-|
E|-0--0--0-0-0--0--0-0-0-0--0--0--0-0-0--0--0--0-0-0-0-3-|
pm------------------------------------------------------|

e|-------------------------------------------------------|
B|-------------------------------------------------------|
G|-------------------------------------------------------|
D|-------------------------------------------------------|
A|-------7-7-7-----7-7-7----------7-7-7--------7-7-7---5-|
E|-0--0--0-0-0--0--0-0-0-0--0--0--0-0-0--0--0--0-0-0-0-3-|
pm------------------------------------------------------|

e|-------------------------------------------------------|
B|-------------------------------------------------------|
G|-------------------------------------------------------|
D|-------------------------------------------------------|
A|-------7-7-7-----7-7-7----------7-7-7--------7-7-7---5-|
E|-0--0--0-0-0--0--0-0-0-0--0--0--0-0-0--0--0--0-0-0-0-3-|
pm------------------------------------------------------|

Yeah!______
e|------------------------|
B|------------------------|
G|------------------------|
D|------------------------|
A|-0-0-0-0-0-0-0-0-0-0-12-|
E|-0-0-0-0-0-0-0-0-0-0-10-|
pm-----------------------|

e|--------------------------------------------------------------|
B|--------------------------------------------------------------|
G|--------------------------------------------------------------|
D|--------------------------------------------------------------|
A|-14--------17-17---10---10------10--10--12-12------12-12--10\-|
E|-12--------15-15---8----8-------8---8---10-10------10-10--12\-|


[Verse 2]

e|-------------------------------------------------------|
B|-------------------------------------------------------|
G|-------------------------------------------------------|
D|-------------------------------------------------------|
A|-------7-7-7-----7-7-7----------7-7-7--------7-7-7---5-|
E|-0--0--0-0-0--0--0-0-0-0--0--0--0-0-0--0--0--0-0-0-0-3-|
pm------------------------------------------------------|

e|-------------------------------------------------------|
B|-------------------------------------------------------|
G|-------------------------------------------------------|
D|-------------------------------------------------------|
A|-------7-7-7-----7-7-7----------7-7-7--------7-7-7---5-|
E|-0--0--0-0-0--0--0-0-0-0--0--0--0-0-0--0--0--0-0-0-0-3-|
pm------------------------------------------------------|

e|-------------------------------------------------------|
B|-------------------------------------------------------|
G|-------------------------------------------------------|
D|-------------------------------------------------------|
A|-------7-7-7-----7-7-7----------7-7-7--------7-7-7---5-|
E|-0--0--0-0-0--0--0-0-0-0--0--0--0-0-0--0--0--0-0-0-0-3-|
pm------------------------------------------------------|

e|-------------------------------------------------------|
B|-------------------------------------------------------|
G|-------------------------------------------------------|
D|-------------------------------------------------------|
A|-------7-7-7-----7-7-7----------7-7-7--------7-7-7---5-|
E|-0--0--0-0-0--0--0-0-0-0--0--0--0-0-0--0--0--0-0-0-0-3-|
pm------------------------------------------------------|

e|-------------------------------------------------------|
B|-------------------------------------------------------|
G|-------------------------------------------------------|
D|-------------------------------------------------------|
A|-------7-7-7-----7-7-7----------7-7-7--------7-7-7---5-|
E|-0--0--0-0-0--0--0-0-0-0--0--0--0-0-0--0--0--0-0-0-0-3-|
pm------------------------------------------------------|

e|-------------------------------------------------------|
B|-------------------------------------------------------|
G|-------------------------------------------------------|
D|-------------------------------------------------------|
A|-------7-7-7-----7-7-7----------7-7-7--------7-7-7---5-|
E|-0--0--0-0-0--0--0-0-0-0--0--0--0-0-0--0--0--0-0-0-0-3-|
pm------------------------------------------------------|

e|-------------------------------------------------------|
B|-------------------------------------------------------|
G|-------------------------------------------------------|
D|-------------------------------------------------------|
A|-------7-7-7-----7-7-7----------7-7-7--------7-7-7---5-|
E|-0--0--0-0-0--0--0-0-0-0--0--0--0-0-0--0--0--0-0-0-0-3-|
pm------------------------------------------------------|

e|-------------------------------------------------------|
B|-------------------------------------------------------|
G|-------------------------------------------------------|
D|-------------------------------------------------------|
A|-------7-7-7-----7-7-7----------7-7-7--------7-7-7---5-|
E|-0--0--0-0-0--0--0-0-0-0--0--0--0-0-0--0--0--0-0-0-0-3-|
pm------------------------------------------------------|


[Interlude]

e|--------------------------------------------------------------|
B|--------------------------------------------------------------|
G|--------------------------------------------------------------|
D|--------------------------------------------------------------|
A|-14--------17-17---10---10------10--10--12-12------12-12--10\-|
E|-12--------15-15---8----8-------8---8---10-10------10-10--12\-|

e|------------------------------------------------|
B|------------------------------------------------|
G|------------------------------------------------| x4
D|--------------2------------------------2--------|
A|-----0-1-0-1-2---------------0-1-0-1-2----1--0--|
E|-0-3---------------------0-3--------------------|

e|------------------------------------------------------------|
B|------------------------------------------------------------|
G|------------------------------------------------------------|
D|------------------------------------------------------------|
A|-14-----------17--14--x--9----8---------8--9---11--12----14-|
E|-12-----------15--12--x--7----6---------6--7----9--10----12-|

e|--------------------------------------------|
B|--------------------------------------------|
G|--------------------------------------------|
D|--------------------------------------------|
A|-17--14--x--12-------7-------------7-----12-|
E|-15--12--x--10-------9-------------9-----10-|

e|------------------------------------------------------------|
B|------------------------------------------------------------|
G|------------------------------------------------------------|
D|------------------------------------------------------------|
A|-14-----------17--14--x--9----8---------8--9---11--12----14-|
E|-12-----------15--12--x--7----6---------6--7----9--10----12-|

e|--------------------------------------------|
B|--------------------------------------------|
G|--------------------------------------------|
D|--------------------------------------------|
A|-17--14--x--12-------7-------------7-----12-|
E|-15--12--x--10-------9-------------9-----10-|


e|-----------------------------------------------|
B|-----------------------------------------------|
G|-----------------------------------------------|
D|-----------------------------------------------|
A|-----7-7-7---------7-7-7---------7-7-7-10--9---|
E|-0-0-0-0-0-0--0--0-0-0-0-0--0--0-0-0-0--8--7---|
pm----------------------------------------------|

e|-------------------------------------------------------|
B|-------------------------------------------------------|
G|-------------------------------------------------------|
D|-------------------------------------------------------|
A|-----7-7-7---------7-7-7---------7-7-7-10--9---12---12-|
E|-0-0-0-0-0-0--0--0-0-0-0-0--0--0-0-0-0--8--7---10---10-|
pm------------------------------------------------------|


[Verse 3]

e|-------------------------------------------------------|
B|-------------------------------------------------------|
G|-------------------------------------------------------|
D|-------------------------------------------------------|
A|-------7-7-7-----7-7-7----------7-7-7--------7-7-7---5-|
E|-0--0--0-0-0--0--0-0-0-0--0--0--0-0-0--0--0--0-0-0-0-3-|
pm------------------------------------------------------|

e|-------------------------------------------------------|
B|-------------------------------------------------------|
G|-------------------------------------------------------|
D|-------------------------------------------------------|
A|-------7-7-7-----7-7-7----------7-7-7--------7-7-7---5-|
E|-0--0--0-0-0--0--0-0-0-0--0--0--0-0-0--0--0--0-0-0-0-3-|
pm------------------------------------------------------|

e|-------------------------------------------------------|
B|-------------------------------------------------------|
G|-------------------------------------------------------|
D|-------------------------------------------------------|
A|-------7-7-7-----7-7-7----------7-7-7--------7-7-7---5-|
E|-0--0--0-0-0--0--0-0-0-0--0--0--0-0-0--0--0--0-0-0-0-3-|
pm------------------------------------------------------|

e|-------------------------------------------------------|
B|-------------------------------------------------------|
G|-------------------------------------------------------|
D|-------------------------------------------------------|
A|-------7-7-7-----7-7-7----------7-7-7--------7-7-7---5-|
E|-0--0--0-0-0--0--0-0-0-0--0--0--0-0-0--0--0--0-0-0-0-3-|
pm------------------------------------------------------|

e|-------------------------------------------------------|
B|-------------------------------------------------------|
G|-------------------------------------------------------|
D|-------------------------------------------------------|
A|-------7-7-7-----7-7-7----------7-7-7--------7-7-7---5-|
E|-0--0--0-0-0--0--0-0-0-0--0--0--0-0-0--0--0--0-0-0-0-3-|
pm------------------------------------------------------|

e|-------------------------------------------------------|
B|-------------------------------------------------------|
G|-------------------------------------------------------|
D|-------------------------------------------------------|
A|-------7-7-7-----7-7-7----------7-7-7--------7-7-7---5-|
E|-0--0--0-0-0--0--0-0-0-0--0--0--0-0-0--0--0--0-0-0-0-3-|
pm------------------------------------------------------|

e|-------------------------------------------------------|
B|-------------------------------------------------------|
G|-------------------------------------------------------|
D|-------------------------------------------------------|
A|-------7-7-7-----7-7-7----------7-7-7--------7-7-7---5-|
E|-0--0--0-0-0--0--0-0-0-0--0--0--0-0-0--0--0--0-0-0-0-3-|
pm------------------------------------------------------|

e|--------------------------------------------------------------|
B|--------------------------------------------------------------|
G|--------------------------------------------------------------|
D|--------------------------------------------------------------|
A|-14--------17-17---10---10------10--10--12-12------12-12--10\-|
E|-12--------15-15---8----8-------8---8---10-10------10-10--12\-|


[Solo]

e|-12b-12b-12b-12b-------12-12-------------------------------|
B|-15b-15b-15b-15b---15b-------15p12-------------------------|
G|-----------------------------------14b--14p12-14p12----12--|
D|----------------------------------------------------14-----|
A|-----------------------------------------------------------|
E|-----------------------------------------------------------|

e|--------12-----12---------------------------------------------------12-|
B|------12---15b----15p12-------------------------------------------12---|
G|-14b--------------------14b-14-12-14p12---12---------------12--14b-----|
D|----------------------------------------14--14p12-14p12h14-------------|
A|-----------------------------------------------------------------------|
E|-----------------------------------------------------------------------|

e|------12-------12-15p12---------12------------------------------------|
B|-15b------15b------------15-15b----15p12------------------------------|
G|-----------------------------------------15p14p12-14p12----12---------|
D|--------------------------------------------------------14-----14p12--|
A|----------------------------------------------------------------------|
E|----------------------------------------------------------------------|

e|-------------------------------------------------------12--------------15-|
B|----------------------------------------------------12----15p12--12/17----|
G|---------------------------------------------12-14b-----------------------|
D|-14p12--12--------------------------12-12h14------------------------------|
A|------14---14/12p10--12p10h12-12\14---------------------------------------|
E|--------------------------------------------------------------------------|

e|-17h18p17p15--17h18p17p15--17h17p17p15-17p15----15-----------------------|
B|---------------------------------------------17---17p15------------------|
G|--------------------------------------------------------16/14p12-12p12---|
D|----------------------------------------------------------------------14-|
A|-------------------------------------------------------------------------|
E|-------------------------------------------------------------------------|

e|--------12------12--------------------------------------------------12-----|
B|------------15b---15p12-------------------------------------------12---15--|b
G|-12h14b----------------14b-14p12-14p12----12---------------12-14b----------|
D|---------------------------------------14---14p12-14p12h14-----------------|
A|---------------------------------------------------------------------------|
E|---------------------------------------------------------------------------|

e|-12-15p12-------12---------------------------------12----------------------|
B|----------1515b----15p12------------------------12----15p12----------------|
G|-------------------------15p14p12-14p12---12-14-------------15p14p12-14p12-|
D|---------------------------------------14----------------------------------|
A|---------------------------------------------------------------------------|
E|---------------------------------------------------------------------------|

e|------------12------------------------------------------------------------|
B|---------12----15p12------------------------------------------------------|
G|---12-14-------------15p14p12-14p12---12----------------------------------|
D|-14---------------------------------14---14p12-14p12---12-----------------|
A|-----------------------------------------------------14---14/12p10-12p10--|
E|--------------------------------------------------------------------------|

e|--------------|
B|--------------|
G|--------------|
D|--------------|
A|---10p12-10-7-|
E|-12---------0-|


[Outro]

e|----------------------------------------------------|
B|----------------------------------------------------|
G|----------------------------------------------------|
D|----------------------------------------------------|
A|-14-------17-17-10-10----10-10-12-12----------12-12-|
E|-12-------15-15-8--8------8--8-10-10----------10-10-|

let ring
e|-12--12----14--14---15--15----16--16----17--17\----|
B|-15b-15b---17b-17b--18b-18b---19b-19b---20b--------|
G|---------------------------------------------------|
D|---------------------------------------------------|
A|------------------------------------------------14-|
E|------------------------------------------------12-|

and thats it.



************************************

| x Dead note
| h Hammer-on
| p Pull-off
| b Bend
| / Slide up
| \ Slide down
| pm palm mute

************************************
Song info
Children Of The Grave
Black Sabbath
2001
  • Rock
  • Hard Rock
  • Heavy Metal
Alternative tracks
Similar songs
Electric Eye - Judas Priest
Pressure And Time - Rival Sons
Determined - Mudvayne
United - Judas Priest

Hi! Hope you enjoy backing track experience.
If you want to help us in the development of the project, feel free to donate!