Die Young - Black Sabbath
00:00 / 00:00
Tabs and lyrics
Tunning: Standard (E A D G B e)
Song "Die Young" by Black Sabbath from their first album with Ronnie James Dio from 1980

[Intro] - Reverb
e|--------------------------------------------------------------------|
B|---14b---11h14p11---------------------------------------------------|
G|-------------------13-11-13b---10h11p10---11------------------------|
D|-----------------------------------------------13-------------------|
A|---------------------------------------------------13/11------------|
E|----------------------------------------------------------14---11---|

fade out...
e|--11---13---14---16---18----18---18---18---18---|
B|--14b--16b--17b--19b--21b-----------------------|
G|------------------------------------------------|
D|------------------------------------------------|
A|------------------------------------------------|
E|------------------------------------------------|

[Main Riff]
e|---------------------------------------------------|
B|---------------------------------------------------|
G|---8----11-13---11/10--8---4-4-6-6-8---------------|
D|---8----11-13---11/10--8---4-4-6-6-8---------------|
A|---6----9--11---9-/8---6---2-2-4-4-6----9-8-6------|
E|-----------------------------------------------9---|

[Verse]
e|-----------------------------------------------|
B|-----------------------------------------------|
G|---8----4-6-8--11-13---11/10--8----------------|
D|---8----4-6-8--11-13---11/10--8----------------|
A|---6----2-4-6--9--11---9-/8---6--9-8-6-----6---|
E|---------------------------------------9-9-----|

e|----------------------------------|
B|----------------------------------|
G|---8----4-6-8---6-----------------|
D|---8----4-6-8---6-----------------|
A|---6----2-4-6---4-----------------|
E|----------------------------------|

[Chorus]
e|---------------------------------------|
B|---------------------------------------|
G|---11-10-----11-10-8----11-8-----------|
D|---11-10-----11-10-8----11-8-----------|
A|---9--8------9--8--6----9--6-----------|
E|---------------------------------------|

[Pre-Breakdown]
e|-----------------------------------------|
B|-----------------------------------------|
G|--------------------------8-6-8-6-8------|
D|--------------------------8-6-8-6-8------|
A|---9--8-----6-------------6-4-6-4-6------|
E|---------9-----9-9--6--------------------|

[Breakdown] - clean
e|--------------------------------6-----------|
B|---------7---6--------------7-----6---------|
G|-------8---8---8---8------8---8-----8-------|
D|-----8-----------8------8-------------8-----|
A|---6------------------6---------------------|
E|--------------------------------------------|

Build up-distortion (excluding lead parts)
e|-----------------------------------------------|
B|-----------------------------------------------|
G|--6-8-8-----13-13-13-4-4-4-11-10--6-6-8--------|
D|--6-8-8-----13-13-13-4-4-4-11-10--6-6-8--------|
A|--4-6-6-----11-11-11-2-2-2-9--8---4-6-6--------|
E|-----------------------------------------------| 3 times then...

e|----------------------------------------|
B|----------------------------------------|
G|---6-8-8----13-13-13-4-4-4-11-10-13-----|
D|---6-8-8----13-13-13-4-4-4-11-10-13-----|
A|---4-6-6----11-11-11-2-2-2-9--8--11-----|
E|----------------------------------------|

Epic Harmony (Might be in a different octive but i can't tell
e|------------------------|
B|------------------------|
G|-----------11--13-13b---|
D|---11--13---------------|
A|------------------------|
E|------------------------|

then [Pre-solo]
e|--------------|
B|--------------|
G|---3-4-4-6-8--|
D|---3-4-4-6-8--|
A|---1-2-2-4-6--| the goes straight into solo
E|--------------|

After the last chorus goes into this (fade out music)
e|------------------------|
B|------------------------|
G|---8----8----4----6-----|
D|---8----8----4----6-----|
A|---6----6----2----4-----|
E|------------------------|

************************************

| h Hammer-on
| p Pull-off
| b Bend
| / Slide up

************************************

[Structure]
[Intro] - lead guitar and keyboard
[Main Riff] - 2nd time lead guitar solos
[Verse 1]
[Main Riff] - 2x with lead guitar solos
[Verse 2]
[Chorus]
[Pre-Breakdown]
[Breakdown] - Clean and small lead fill
[Build-up]
[Small Harmony riff] and [pre-solo riff] - 1x each
[Solo - Rhythm plays main riff] 2x
[Verse 3]
[Chorus]
[Fade out music] - with lead guitar soloing

I apologize if i have made any mistakes, If you have any about this tab please contact
at spoonman_lives@hotmail.com
Song info
Die Young
Black Sabbath
2001
  • Rock
  • Classic Rock
  • Heavy Metal
Similar songs
Cult Of Personality - Living Colour
Mean Street - Van Halen
Feelin Alright - Joe Cocker
Forever And One - Helloween
Aint No Love - Whitesnake

Hi! Hope you enjoy backing track experience.
If you want to help us in the development of the project, feel free to donate!