Iron Man - Black Sabbath
00:00 / 00:00
Tabs and lyrics
Tunning: Standard (E A D G B e)
This is exactly how the song is played .Some of the tabs are close, but just noticable. Please rate this and tell me what you think
Do not do the last note of the slids, just slid only.
If you have any comments email me at xxtavixx@hotmail.com
Dont bother sending me any corrections, this tab is 100% correct.

Intro
For the Intro hit the open E string (top string) and bend it behind the nut 3 times, let them ring


Fig 1
e:-----------------------------------------------
b:-----------------------------------------------
g:-----------------------------------------------
d:4/7-7/9-12\10-12\12-12\7-7/9-9-----------------
a:2/5-5/7-10\9--10\9--10\5-5/7-7-----------------
e:-------------------------------X\3-------------

Fig 2 (Verse)
e:-----------------------------------------------
b:-----------------------------------------------
g:-----------------------------------------------
d:----------5h4-5h4 5h4--------------------------
a:2-5-5h7-7-------------5/7-7/15\----------------
e:-----------------------------------------------

Fig 3 (Interlude 1)
e:-----------------------------------------------
b:-----------------------------------------------
g:-----------------------------------------------
d:-----------------------------------------------
a:-----5-----------------------------------------
e:-7-7---7-6-5-5-5-0h4-5-5-6-7-7-----------------

Fig 4 (Bridge)
e:-----------------------------------------------
b:-----------------------------------------------
g:----------------------2-3-4---------------2-3-4
d:9--7--4-4-----2-2-3-4-------4-4-----22-3-4-----
a:7--5--2-2-2-5---------------2-2-2-5------------
e:-----------------------------------------------

Fig 5 (Interlude 2)
e:-----------------------------------------------
b:-----------------------------------------------
g:-6-4----------------6-4------------------------
d:-----6-5-4-2------------6-5-4-2----------------
a:-------------2-2h4-4------------2--2h4 4-------
e:-----------------------------------------------

Solo 1
e:------------------------------------------------------------
b:---------------------------------5----------5-5-------------
g:-------------------------4-4-4h6---6--6p4-------6p4---4h6---
d:-----2-2h4-4p2---2-4-4/6------------------6---------6-------
a:-2-4-----------4--------------------------------------------
e:------------------------------------------------------------

e:-------------9-----------------------------------9-----------------
b:---------9^-----12p9-----9----------------------9--12h9----9-12h9--
g:-6---11-11^----------11--9-9-9h10----------9-11^------11h9---------
d:----------------------------------11-9-9h11------------------------
a:-------------------------------------------------------------------
e:-------------------------------------------------------------------

e:--------------9-12^---9-------12^--12^12^--12^-12-9h12p9-9---------
b:-9-9-12h9----9--12^-----12-9-9----------------------------12-12v---
g:---------11h9------------------------------------------------------
d:-------------------------------------------------------------------
a:-------------------------------------------------------------------
e:-------------------------------------------------------------------

e:----9---------9----------------------------------------------------
b:12^---12h9---9---12h9----------------------------------------------
g:----------11---------11-11p9---9-9-------------9-9--------------9--
d:---------------------------11-----11p9----9h11----11p9----9h11-9---
a:---------------------------------------11--------------11----------
e:-------------------------------------------------------------------

e:-------------------------------------------------------------------
b:-------------------------------------------------------------------
g:-------------------------------------------------------------------
d:----9h11-9h11-9h11-9h11-9h11-9h11-9h11-9h11-9h11-9h11-9h11-9h11----
a:-------------------------------------------------------------------
e:-------------------------------------------------------------------

Fig 6

e:----0^---------0^----
(let this two ring, to bend an open just put pressure on string behind the nut)

Fig 7 (Entrance to Second Solo)
e:-------------------------------------------------------------------
b:-------------------------------------------------------------------
g:-------------------------------------------------------------------
d:-------------------4-5-4-5-4h5p4--------------------4-5-4-5-4h5p4--
a:-7h5-7-5h7p5-7h5-7---------------57h5-7-5h7p5-7h5-7---------------5
e:-------------------------------------------------------------------

Solo 2
e:--------------------------------------------------10-10h12----------
b:----------------------------------------8---10/12-------------------
g:-------------7---7-9-9^-9^-9^--7---7h9----9-------------------------
d:-----5---7/9---9-----------------9----------------------------------
a:-5/7---7------------------------------------------------------------
e:--------------------------------------------------------------------

e:--------------------------------------------------------------------
b:-----------------------------------------5v----8--------------------
g:--------------7--7h9-9^-9^-9^-7--7-9-7h9----9v----------------------
d:-----5-7--7/9-------------------------------------------------------
a:-5h7----------------------------------------------------------------
e:--------------------------------------------------------------------

e:-12^-12^-12^-10---10-----------------------------------------------
b:----------------X----12-12\10-8/10-8-------------------------------
g:-------------------------------------9-7---------------------------
d:-----------------------------------------9\7-5-7h5---7p5-----5-7---
a:---------------------------------------------------7-----5h7-------
e:-------------------------------------------------------------------

e:--------------14^---------------------------------------------------
b:--------------17^--17^--17^--15--17h15------------------------------
g:-----7---7-9---------------------------16-16\14--0--10\9--7--7------
d:-7/9---9------------------------------------------------------------
a:--------------------------------------------------------------------
e:--------------------------------------------------------------------

Fig 8
e:--------------------------------------------------------------------
b:--------------------------------------------------------------------
g:-9^-9^-9^-9^-9^--7h9p7---7------------------------------------------
d:-----------------------9---9\7-5-7--5-7--7^-7^-7^--5----------------
a:------------------------------------------------------7-------------
e:--------------------------------------------------------------------

e:--------------------------------------------------------------------
b:--------------------------------------------------------------------
g:-9^-9^--------------------------------------------------------------
d:-------7/9--9--9\7--7h5--7p5----------------------------------------
a:------------------------------7--5----------------------------------
e:--------------------------------------------------------------------

Outro
e:----------------
b:----------------
g:----------------
d:----------------
a:---7---5--7-----
e:----------------



Okay, Now heres the order in which the song is played, I am pretty sure the order is right, everything else is right tho.

Intro
Fig 1 x2
Fig 2 x2
Fig 1 x1
Fig 2 x2
Fig 1 x1
Fig 2 x2
Fig 3 x3
Fig 1 x2
Fig 2 x2
Fig 4 x2
Fig 1 x2
Fig 2 x2
Fig 4 x2
Fig 5 x1
Solo 1
Fig 4 x2
Fig 1 x2
Fig 2 x2
Fig 3 x3
Fig 6 x1
Fig 7 x1
Solo 2
Fig 8 x1
Outro

---Andrew
Tunning: Standard (E A D G B e)
[Intro riff]
e|------------------------------------------|------------------------------------------|
B|------------------------------------------|------------------------------------------|
G|------------------------------------------|------------------------------------------|
D|----7--7/9-9--12\11-12\11-12\11--7-7/9-9--|----7--7/9-9--12\11-12\11-12\11--7-7/9-9--|
A|-9--5--5/7-7--10\9--10\9--10\9---5-5/7-7--|-9--5--5/7-7--10\9--10\9--10\9---5-5/7-7--|
E|-7----------------------------------------|-7----------------------------------------|

[Verse]
(repeat throughout the verse)
e|------------------------------------------|------------------------------------------|
B|------------------------------------------|------------------------------------------|
G|------------------------------------------|------------------------------------------|
D|------------------------------------------|------------------------------------------|
A|----5--5h7--7--10\9-10\9-10\9--5--5h7--7--|----5--5h7--7--10\9-10\9-10\9--5--5h7--7--|
E|-7----------------------------------------|-7----------------------------------------|
has he lost his mind can he see or is he blind

[Rhytm]
(repeat throughout the verse)
e|------------------------------------------|
B|------------------------------------------|
G|------------------------------------------|
D|------------------------------------------|
A|----5--5h7--7--10\9-10\9-10\9--5--5h7--7--|
E|-7----------------------------------------|
Is he live or dead? Has he thoughts within his head, ect.

[1st riff]
e|------------------------------------------------------|
B|------------------------------------------------------|
G|------------------------------------------------------|
D|------------------------------------------------------|
A|-----5-------------------------5----------------------|
E|-7-7---7-6-5-5-5-0h4-5-5-6-7-7---7-6-5-5-5-0h4-5-5-6--|

[End of 1st riff]
e|-----------------|
B|-----------------|
G|-----------------|
D|-----------------|
A|-----5-----------|
E|-7-7---7-6-5-5-5-|

[Rhythm]
e|------------------------------------------|
B|------------------------------------------|
G|------------------------------------------|(x2)
D|------------------------------------------|
A|----5--5h7--7--10\9-10\9-10\9--5--5h7--7--|
E|-7----------------------------------------|
He was turned to steel in the great magnetic field, ect.

[Bridge]
e|------------------------------------------|------------------------------------------------------|
B|------------------------------------------|------------------------------------------------------|
G|------------------------------------------|------------------------------------------------------|
D|-9------------------7---------------------|---------------------7-8-9----------------------7-8-9-|
A|-7------------------5---------------------|-9--9-------7--7-8-9--------9--9-------7--7-8-9-------|
E|------------------------------------------|-7--7--7-10-----------------7--7--7-10----------------|
Nobody wants him he just stares at the world

e|------------------------------------------|------------------------------------------------------|
B|------------------------------------------|------------------------------------------------------|
G|------------------------------------------|------------------------------------------------------|
D|-9------------------7---------------------|---------------------7-8-9----------------------7-8-9-|
A|-7------------------5---------------------|-9--9-------7--7-8-9--------9--9-------7--7-8-9-------|
E|------------------------------------------|-7--7--7-10-----------------7--7--7-10----------------|
Planning his vengance that he will soon unfurl

[Rhythm]
e|------------------------------------------|
B|------------------------------------------|
G|------------------------------------------|(x2)
D|------------------------------------------|
A|----5--5h7--7--10\9-10\9-10\9--5--5h7--7--|
E|-7----------------------------------------|
Now the time is here for Iron Man to spread fear, ect.

[Bridge]
e|------------------------------------------|------------------------------------------------------|
B|------------------------------------------|------------------------------------------------------|
G|------------------------------------------|------------------------------------------------------|
D|-9------------------7---------------------|---------------------7-8-9----------------------7-8-9-|
A|-7------------------5---------------------|-9--9-------7--7-8-9--------9--9-------7--7-8-9-------|
E|------------------------------------------|-7--7--7-10-----------------7--7--7-10----------------|
Nobody wants him, they just turn their heads, ect.

[Solo]
e|---------------------------------------------|
B|---------------------------------------------|
G|---------------------------------------------|
D|-11-9-------------------11-9-----------------|
A|------11-10-9-7--------------11-10-9-7-------|
E|----------------7-7/9-9----------------7-7h9-|

e|----------------------------------------------------------|
B|----------------------------------------------------------|
G|----------------------------------9-9---------9-9---------|
D|-------------------------9-9-9h11-----11p9--------11p9----|
A|-----7h9-9p7----7h9-9/11-------------------11----------11-|
E|-7h9---------9h-------------------------------------------|

e|--------------9-------------------------------------------|
B|----------7/9---12-9---9--------------------9-12p9----9---|
G|---------------------11--9-9-----------9h11--------11-----|
D|-9h11-11---------------------11-9-9h11--------------------|
A|----------------------------------------------------------|
E|----------------------------------------------------------|

e|------------------------9--------/14-14-14-14p12----------|
B|-12p9----9-12p9----9-12---12-9-9-----------------14h-14---|
G|------11--------11----------------------------------------|
D|----------------------------------------------------------|
A|----------------------------------------------------------|
E|----------------------------------------------------------|

e|--------9-9-----------------------------------------------|
B|-12-14------12p9-----9-12-12p9----------------------------|
G|-----------------11h-----------11h-11p9-----9-9-----------|
D|----------------------------------------11h-----11p9------|
A|-----------------------------------------------------11---|
E|----------------------------------------------------------|

e|----------------------------------------------------------|
B|----------------------------------------------------------|
G|------9-9---------------9---------------------------------|
D|-9h11-----11p9-----9h11---9-9h11-9h11-9h11-9h11-9h11-11---|
A|---------------11h----------------------------------------|
E|----------------------------------------------------------|

e|----------------------------------------------------------|
B|----------------------------------------------------------|
G|----------------------------------------------------------|
D|-9h11-9h11-9h11-9h11-9h11-11-11-9-----------------11-9----|
A|----------------------------------11-10-9-7------------11-|
E|--------------------------------------------7-7/9---------|

e|--------------|
B|--------------|
G|--------------|
D|--------------|
A|-10-9-7-------|
E|--------7-7/9-|

[Bridge]
e|------------------------------------------------------|
B|------------------------------------------------------|
G|------------------------------------------------------|(x2)
D|---------------------7-8-9----------------------7-8-9-|
A|-9--9-------7--7-8-9--------9--9-------7--7-8-9-------|
E|-7--7--7-10-----------------7--7--7-10----------------|

[Rhytm]
e|------------------------------------------|
B|------------------------------------------|
G|------------------------------------------|(x2)
D|------------------------------------------|
A|----5--5h7--7--10\9-10\9-10\9--5--5h7--7--|
E|-7----------------------------------------|
Heavy boots of lead, fills his victims full of dread, ect.

[1st riff]
e|------------------------------------------------------|
B|------------------------------------------------------|
G|------------------------------------------------------|
D|------------------------------------------------------|
A|-----5-------------------------5----------------------|
E|-7-7---7-6-5-5-5-0h4-5-5-6-7-7---7-6-5-5-5-0h4-5-5-6--|


***********************************

| / Slide up
| \ Slide down
| h Hummer-on
| p Pull-off

***********************************
Tunning: Standard (E A D G B e)
IRON MAN by Black Sabbath
Submitted by isthatmycow

hey.......i already submitted this tab but i forgot to put my name on it, lol.......sorry for the confusion..here it is again

|--------------------
|--------------------
|--------------------
|--------------------
|--------------------
|-1b1/4--0-----------
I am Iron Man!!!!!
repeat twice without words

|------------------------------------------
|------------------------------------------
|------------------------------------------ *this is the
|----7--7/9-9--12\11-12\11-12\11--7-7/9-9-- rhythm
|-9--5--5/7-7--10\9--10\9--10\9---5-5/7-7--
|-7----------------------------------------
repeat once

|------------------------------------------
|------------------------------------------
|------------------------------------------
|------------------------------------------
|----5--5h7--7--10\9-10\9-10\9--5--5h7--7--
|-7----------------------------------------
has he lost can he see or is blind
his he
mind

repeat throughout the verse

rhythm once

|------------------------------------------
|------------------------------------------
|------------------------------------------
|------------------------------------------
|----5--5h7--7--10\9-10\9-10\9--5--5h7--7--
|-7----------------------------------------

Is he live or dead? Has he thoughts within his head, ect.
repeat throughout the verse

* 1st riff
|------------------------------------------------------
|------------------------------------------------------
|------------------------------------------------------
|------------------------------------------------------
|-----5-------------------------5----------------------
|-7-7---7-6-5-5-5-0h4-5-5-6-7-7---7-6-5-5-5-0h4-5-5-6--

*end of 1st riff
|-----------------
|-----------------
|-----------------
|-----------------
|-----5-----------
|-7-7---7-6-5-5-5-

rhythm twice

|------------------------------------------
|------------------------------------------
|------------------------------------------
|------------------------------------------
|----5--5h7--7--10\9-10\9-10\9--5--5h7--7--
|-7----------------------------------------

He was turned to steel in the great magnetic field, ect.

*bridge
|----------------------------------------------------
|----------------------------------------------------
|----------------------------------------------------
|-9------------------7-------------------------------
|-7------------------5-------------------------------
|----------------------------------------------------
Nobody wants him he just stares at the -

|------------------------------------------------------
|------------------------------------------------------
|------------------------------------------------------
|---------------------7-8-9----------------------7-8-9-
|-9--9-------7--7-8-9--------9--9-------7--7-8-9-------
|-7--7--7-10-----------------7--7--7-10----------------
world

repeat once -
Planning his vengance that he will soon unfurl

rhythm twice

|------------------------------------------
|------------------------------------------
|------------------------------------------
|------------------------------------------
|----5--5h7--7--10\9-10\9-10\9--5--5h7--7--
|-7----------------------------------------

Now the time is here for Iron Man to spread fear, ect.

bridge -
Nobody wants him, they just turn their heads, ect.

*lead*
|---------------------------------------------
|---------------------------------------------
|---------------------------------------------
|-11-9-------------------11-9-----------------
|------11-10-9-7--------------11-10-9-7-------
|----------------7-7/9-9----------------7-7h9-

|----------------------------------------------------------
|----------------------------------------------------------
|----------------------------------9-9---------9-9---------
|-------------------------9-9-9h11-----11p9--------11p9----
|-----7h9-9p7----7h9-9/11-------------------11----------11-
|-7h9---------9h-------------------------------------------

|--------------9-------------------------------------------
|-----------/9---12-9-----------------------9-12p9----9----
|---------------------11-9-9-----------9h11--------11------
|-9h11-11--------------------11-9-9h11---------------------
|----------------------------------------------------------
|----------------------------------------------------------

|------------------------9--------/14-14-14-14p12----------
|-12p9----9-12p9----9-12---12-9-9-----------------14h-14---
|------11--------11----------------------------------------
|----------------------------------------------------------
|----------------------------------------------------------
|----------------------------------------------------------

|--------9-9-----------------------------------------------
|-12-14------12p9-----9-12-12p9----------------------------
|-----------------11h-----------11h-11p9-----9-9-----------
|----------------------------------------11h-----11p9------
|-----------------------------------------------------11---
|----------------------------------------------------------

|----------------------------------------------------------
|----------------------------------------------------------
|------9-9---------------9---------------------------------
|-9h11-----11p9-----9h11---9-9h11-9h11-9h11-9h11-9h11-11---
|---------------11h----------------------------------------
|----------------------------------------------------------

|----------------------------------------------------------
|----------------------------------------------------------
|----------------------------------------------------------
|-9h11-9h11-9h11-9h11-9h11-11-11-9-----------------11-9----
|----------------------------------11-10-9-7------------11-
|--------------------------------------------7-7/9---------

|--------------
|--------------
|--------------
|--------------
|-10-9-7-------
|--------7-7/9-

repeat 2nd 1/2 of bridge twice =
|------------------------------------------------------
|------------------------------------------------------
|------------------------------------------------------
|---------------------7-8-9----------------------7-8-9-
|-9--9-------7--7-8-9--------9--9-------7--7-8-9-------
|-7--7--7-10-----------------7--7--7-10----------------

rhythm twice

|------------------------------------------
|------------------------------------------
|------------------------------------------
|------------------------------------------
|----5--5h7--7--10\9-10\9-10\9--5--5h7--7--
|-7----------------------------------------

Heavy boots of lead, fills his victims full of dread, ect.

1st riff

extro......

if you have any questions, email me at isthatmycow@hotmail.com
Tunning: Standard (E A D G B e)
Hey everyone this is my first tab bare with me.



(slide here)
e|-------------------------------------------------------
b|-------------------------------------------------------
g|-------------------------------------------------------
d|--4---7---7---9---9---12-11-12-11-12-11---7---7---9---9
a|--2---5---5---7---7---10-9- 10- 9-10- 9---5---5---7---7
E|-------------------------------------------------------

(repeat)

Part B

e|----------------------------------------
b|----------------------------------------
g|---------------------------------------- (play twice)
d|--4-4-4--7--4--3--2-2-2-----------------
a|--2-2-2--5--2--1--0-0-0-2--6-7-8--------
E|------------------------0--4-5-6--------


Part C

e|-------------------------------------------------------
b|-------------------------------------------------------
g|-------------------------------------------------------
d|--9--------5----7--4-4-4------4-4---------------7-8-9--
a|--7--7-7-7---7--5--------7-5--2-2----5-7--7-8-9--------
E|-----------------------------------7-------------------

(Play this part twice again)


Well there ya go. Any problems or feedback E-mail joefo48@hotmail.com

Tunning: Standard (E A D G B e)
Iron Man
Black Sabbath

This tab is pretty much the way that Tony Iommi plays the song. Most of the
other tabs for this song are way off so you guys need this.
It's a great song by a great band on a great album. Basically its great.
Enjoy!

[Intro]
press behind nut on E string
e|----------------------|
B|----------------------|
G|----------------------|
D|2---------------------|
A|----------------------|
E|0^--------------------|

[Verse]

e|------------------------------------------------------------|
B|------------------------------------------------------------|
G|------------------------------------------------------------|
D|------------------------------------------------------------|
A|--9-/-12--12/14----17\16-17\16-17\12--12-12/14-14-----------|
E|--7-/-10--10/12----15\14-15\14-15\10--10-10/12-12-----------|

[Bridge 1]

e|------------------------------------------------------------|
B|------------------------------------------------------------|
G|------------------------------------------------------------| x2
D|------------------------------------------------------------|
A|------5-----------------------------------------------------|
E|--7-7---7--6-5-5-5--0-4-5-5-6-------------------------------|

e|------------------------------------------------------------|
B|------------------------------------------------------------|
G|------------------------------------------------------------|
D|------------------------------------------------------------|
A|------5-----------------------------------------------------|
E|--7-7---7--6-5-5-5------------------------------------------|

Bridge 2: (Tony does not play the -7----5- on the E string, this is
played by Geezer on bass)

e|------------------------------------------------------------|
B|------------------------------------------------------------|
G|------------------------------------------------------------| x2
D|------------------7-8-9-------------------------------------|
A|-9-9------7-7-8-9-------------------------------------------|
E|-7-7-7-10---------------------------------------------------|

[Bridge 3]

e|------------------------------------------------------------|
B|------------------------------------------------------------|
G|-11-9-------------------------------------------------------|x2
D|------11-10-9-----------------------------------------------|
A|--------------7---------------------------------------------|
E|----------------7-7/9-9-------------------------------------|

[Solo 1]

e|------------------------------------------------------------|
B|---------------------------------5----------5-5-------------|
G|-------------------------4-4-4h6---6--6p4-------6p4---4h6---|
D|-----2-2h4-4p2---2-4-4/6------------------6---------6-------|
A|-2-4-----------4--------------------------------------------|
E|------------------------------------------------------------|

e|-------------9-----------------------------------9--------------|
B|-------------9--12p9-----9-------------------------129----9-129-|
G|-6---11-11^----------11----9-9^------------9-11^------119-------|
D|---------------------------------11-9-9h11----------------------|
A|----------------------------------------------------------------|
E|----------------------------------------------------------------|

e|------------9-12^----9--------12^---12^^12---12^^12-129----9--------|
B|-9-129----9---12^------12-9-9---------------------------12---12-12^-|
G|-11------119--------------------------------------------------------|
D|--------------------------------------------------------------------|
A|--------------------------------------------------------------------|
E|--------------------------------------------------------------------|

e|----9---------9-----------------------------------------------------|
B|12^---129---9---129-------------------------------------------------|
G|---------11---------11-11p9---9-9--------------9-9--------------9---|
D|---------------------------11-----11p9----9h11-----11p9----9-11-9-9-|
A|---------------------------------------11---------------11----------|
E|--------------------------------------------------------------------|

e|-----------------------------------------------------|
B|-----------------------------------------------------|
G|--------------------9----------------------------9---|
D|9h11-9h11-9h11-9-11-9-9-9h11-9h11-9h11-9h11-9-11-9-9-|
A|-----------------------------------------------------|
E|-----------------------------------------------------|

e|--------------------------------------------------|
B|--------------------------------------------------|
G|------9---6-4-----------------6-4-----------------|
D|-9-11-9-9-----6-5-4-2-------------6-5-4-2---------|
A|----------------------2-2/4-4-------------2-2/4-4-|
E|--------------------------------------------------|

[Bridge 4]

e|----------------------------------|
B|----------------------------------|
G|----------------------------------| x2
D|---------------------4-5-4h5p4p0--|
A|-7p5-7--5h7-5--7p5-7--------------|
E|----------------------------------|

[Solo 2]

e|-----------------------------------------------------------------|
B|-----------------------------------------------------------------|
G|--------------7---7-9-9^^^--9^^^---9^^--7---7/9------------------|
D|------5---7/9---9-------------------------9----------------------|
A|--6/7---7--------------------------------------------------------|
E|-----------------------------------------------------------------|

e|-----------10-10h12-12^-12^-12^^-10-12p10-----10---------------------|
B|-8---10/12---------------------------------------12-12\10-8-11-8-----|
G|---9--------------------------------------12---------------------9-7-|
D|---------------------------------------------------------------------|
A|---------------------------------------------------------------------|
E|---------------------------------------------------------------------|

e|---------------------------------------------------------|
B|---------------------------------------------------------|
G|---------------------------------7--7-9-9^^-9^^-9^^^^----|
D|-9\7-5--7p5----5h7-------5-7-7/9---9---------------------|
A|------------7------5h7-----------------------------------|
E|---------------------------------------------------------|

e|---------------------------------------------------------|
B|---------------------------------------------------------|
G|-9^-9^^-9p7----7-----------------------------------------|
D|------------9------9\7-5-7---5-7-7^^--7^^--7^^^-5--------|
A|---------------------------------------------------7-----|
E|---------------------------------------------------------|

[Outro]

e|--------------|
B|--------------|
G|--------------|
D|--------------|
A|-7-5-7--------|
E|--------------|

Intro x3
[Verse] x7
[Bridge 1]
[Verse] x4
[Bridge] 2 x2
[Verse] x4
[Bridge 2] x2
[Bridge 3]
[Solo 1]
[Bridge 2] x2
[Verse] x4
[Bridge 4]
[Solo 2]
[Bridge 4]
[Outro]

************************************

| / Slide up
| \ Slide down
| h Hammer-on
| p Pull-off

************************************
Tunning: Standard (E A D G B e)
This is exactly how the song is played .Some of the tabs are close,
but just noticable. Please rate this and tell me what you think
Do not do the last note of the slids, just slid only.
If you have any comments email me at xxtavixx@hotmail.com
Dont bother sending me any corrections, this tab is 100% correct.

Intro
For the Intro hit the open E string (top string) and bend it behind
the nut 3 times, let them ring


Fig 1
e:-----------------------------------------------
b:-----------------------------------------------
g:-----------------------------------------------
d:4/7-7/9-12\10-12\12-12\7-7/9-9-----------------
a:2/5-5/7-10\9--10\9--10\5-5/7-7-----------------
e:-------------------------------X\3-------------

Fig 2 (Verse)
e:-----------------------------------------------
b:-----------------------------------------------
g:-----------------------------------------------
d:----------5h4-5h4 5h4--------------------------
a:2-5-5h7-7-------------5/7-7/15\----------------
e:-----------------------------------------------

Fig 3 (Interlude 1)
e:-----------------------------------------------
b:-----------------------------------------------
g:-----------------------------------------------
d:-----------------------------------------------
a:-----5-----------------------------------------
e:-7-7---7-6-5-5-5-0h4-5-5-6-7-7-----------------

Fig 4 (Bridge)
e:-----------------------------------------------
b:-----------------------------------------------
g:----------------------2-3-4---------------2-3-4
d:9--7--4-4-----2-2-3-4-------4-4-----22-3-4-----
a:7--5--2-2-2-5---------------2-2-2-5------------
e:-----------------------------------------------

Fig 5 (Interlude 2)
e:-----------------------------------------------
b:-----------------------------------------------
g:-6-4----------------6-4------------------------
d:-----6-5-4-2------------6-5-4-2----------------
a:-------------2-2h4-4------------2--2h4 4-------
e:-----------------------------------------------

Solo 1
e:------------------------------------------------------------
b:---------------------------------5----------5-5-------------
g:-------------------------4-4-4h6---6--6p4-------6p4---4h6---
d:-----2-2h4-4p2---2-4-4/6------------------6---------6-------
a:-2-4-----------4--------------------------------------------
e:------------------------------------------------------------

e:-------------9-----------------------------------9-----------------
b:---------9^-----12p9-----9----------------------9--12h9----9-12h9--
g:-6---11-11^----------11--9-9-9h10----------9-11^------11h9---------
d:----------------------------------11-9-9h11------------------------
a:-------------------------------------------------------------------
e:-------------------------------------------------------------------

e:--------------9-12^---9-------12^--12^12^--12^-12-9h12p9-9---------
b:-9-9-12h9----9--12^-----12-9-9----------------------------12-12v---
g:---------11h9------------------------------------------------------
d:-------------------------------------------------------------------
a:-------------------------------------------------------------------
e:-------------------------------------------------------------------

e:----9---------9----------------------------------------------------
b:12^---12h9---9---12h9----------------------------------------------
g:----------11---------11-11p9---9-9-------------9-9--------------9--
d:---------------------------11-----11p9----9h11----11p9----9h11-9---
a:---------------------------------------11--------------11----------
e:-------------------------------------------------------------------

e:-------------------------------------------------------------------
b:-------------------------------------------------------------------
g:-------------------------------------------------------------------
d:----9h11-9h11-9h11-9h11-9h11-9h11-9h11-9h11-9h11-9h11-9h11-9h11----
a:-------------------------------------------------------------------
e:-------------------------------------------------------------------

Fig 6

e:----0^---------0^----
(let this two ring, to bend an open just put pressure on string behind the nut)

Fig 7 (Entrance to Second Solo)
e:-------------------------------------------------------------------
b:-------------------------------------------------------------------
g:-------------------------------------------------------------------
d:-------------------4-5-4-5-4h5p4--------------------4-5-4-5-4h5p4--
a:-7h5-7-5h7p5-7h5-7---------------57h5-7-5h7p5-7h5-7---------------5
e:-------------------------------------------------------------------

Solo 2
e:--------------------------------------------------10-10h12----------
b:----------------------------------------8---10/12-------------------
g:-------------7---7-9-9^-9^-9^--7---7h9----9-------------------------
d:-----5---7/9---9-----------------9----------------------------------
a:-5/7---7------------------------------------------------------------
e:--------------------------------------------------------------------

e:--------------------------------------------------------------------
b:-----------------------------------------5v----8--------------------
g:--------------7--7h9-9^-9^-9^-7--7-9-7h9----9v----------------------
d:-----5-7--7/9-------------------------------------------------------
a:-5h7----------------------------------------------------------------
e:--------------------------------------------------------------------

e:-12^-12^-12^-10---10-----------------------------------------------
b:----------------X----12-12\10-8/10-8-------------------------------
g:-------------------------------------9-7---------------------------
d:-----------------------------------------9\7-5-7h5---7p5-----5-7---
a:---------------------------------------------------7-----5h7-------
e:-------------------------------------------------------------------

e:--------------14^---------------------------------------------------
b:--------------17^--17^--17^--15--17h15------------------------------
g:-----7---7-9---------------------------16-16\14--0--10\9--7--7------
d:-7/9---9------------------------------------------------------------
a:--------------------------------------------------------------------
e:--------------------------------------------------------------------

Fig 8
e:--------------------------------------------------------------------
b:--------------------------------------------------------------------
g:-9^-9^-9^-9^-9^--7h9p7---7------------------------------------------
d:-----------------------9---9\7-5-7--5-7--7^-7^-7^--5----------------
a:------------------------------------------------------7-------------
e:--------------------------------------------------------------------

e:--------------------------------------------------------------------
b:--------------------------------------------------------------------
g:-9^-9^--------------------------------------------------------------
d:-------7/9--9--9\7--7h5--7p5----------------------------------------
a:------------------------------7--5----------------------------------
e:--------------------------------------------------------------------

Outro
e:----------------
b:----------------
g:----------------
d:----------------
a:---7---5--7-----
e:----------------



Okay, Now heres the order in which the song is played, I am pretty sure
the order is right, everything else is right tho.

Intro
Fig 1 x2
Fig 2 x2
Fig 1 x1
Fig 2 x2
Fig 1 x1
Fig 2 x2
Fig 3 x3
Fig 1 x2
Fig 2 x2
Fig 4 x2
Fig 1 x2
Fig 2 x2
Fig 4 x2
Fig 5 x1
Solo 1
Fig 4 x2
Fig 1 x2
Fig 2 x2
Fig 3 x3
Fig 6 x1
Fig 7 x1
Solo 2
Fig 8 x1
Outro

---Andrew
Tunning: Standard (E A D G B e)
-------------------------------------------------------------------------------
Iron Man - Black Sabbath
-------------------------------------------------------------------------------

Tuning:
Standard E A D G B E

Hit the low E string 3 times slowly behind the nut

Intro
e|---------------------------------------------------------------------------|
B|---------------------------------------------------------------------------|
G|-----5---7\9--9--12\11--12\11--12\7--7/9--9--------------------------------|
D|--9--7---7\9--9--12\11--12\11--12\7--7/9--9--------------------------------|
A|--9--7---5\7--7--10\9---10\9---10\5--5/7--7--------------------------------|
E|--7------------------------------------------------------------------------|

Verse 1
e|---------------------------------------------------------------------------|
B|---------------------------------------------------------------------------|
G|---------------------------------------------------------------------------|
D|---------------5\4--5h4--5h4-----------------------------------------------|
A|----5--5/7-7------------------5--5/7--7---/17------------------------------|
E|-7-------------------------------------------------------------------------|

Verse 2
e|---------------------------------------------------------------------------|
B|---------------------------------------------------------------------------|
G|---------------------------------------------------------------------------|
D|---------------------------------------------------------------------------|
A|------5b-------------------------------------------------------------------|
E|-7-7-----7--6-555-0-4-55-6-------------------------------------------------|

Verse 3
e|---------------------------------------------------------------------------|
B|---------------------------------------------------------------------------|
G|---------------------------------------------------------------------------|
D|-9--7----------------------789---------------------------------------------|
A|-7--5--9-9---------7--789--------------------------------------------------|
E|-------7-7--7--10----------------------------------------------------------|

Verse 4
e|---------------------------------------------------------------------------|
B|---------------------------------------------------------------------------|
G|---------------------------------------------------------------------------|
D|-9-----7-------------------------------------------------------------------|
A|-7-----5-------------------------------------------------------------------|
E|---------------------------------------------------------------------------|
play slow

Solo
e|---------------------------------------------------------------------------|
B|---------------------------------------------------------------------------|
G|--------------------------------------------------------------------9------|
D|-11--9----------------------------------------------------9-9-9h11-----11--|
A|-------11-10-9---7----------------7-7h9--9p7----79---9/11------------------|
E|--------------------7-7h9-9--7-9-------------9-----------------------------|

e|------------------------------------------------9--------------------------|
B|------------------------------------------------9--12p9--------------------|
G|-----------9-9-----------------------9--11-11b----------11-----------------|
D|-11h9-----------11p9------9h11--11-----------------------------------------|
A|-------11-------------11---------------------------------------------------|
E|---------------------------------------------------------------------------|

Solo End
e|---------------------------------------------------------------------------|
B|---------------------------------------------------------------------------|
G|---------------------------------------------------------------------------|
D|-11--9---------------------------------------------------------------------|
A|-------11-10-9---7---------------------------------------------------------|
E|---------------------7-7h9-9-----------------------------------------------|


| / slide up
| \ slide down
| h hammer-on
| p pull-off
| ~ vibrato
| + harmonic
| x Mute note
Tunning: Standard (E A D G B e)
|----------|----------|----------------|--------------------|
|----------|----------|----------------|--------------------|
|----------|----------|----------------|--------------------|
|----------|----------|----------------|--------------------|
|----------|----------|----------------|--------------------|
|----------|----------|-0pb2r=====(0)--|-(0)b2----(0)--(0)--|

|----------------|-----------------|-----------------------|
|----------------|-----------------|-----------------------|
|----------------|-----------------|-----------------------|
|----------------|-----------------|-----------------------|
|----------------|-----------------|-----------------------|
|-0pb2r=====(0)--|-(0)------([0])--|-(0)b2--(0)--(0)--(0)--|

|----------------|-------------------|
|----------------|-------------------|
|----------------|-------------------|
|----------------|-------------------|
|----------------|-------------------|
|-0pb2r=====(0)--|-(0)b2----(0)--(0)-|

|------------------|--------------------------------|
|------------------|--------------------------------|
|------------------|--------------------------------|
|------------------|--------------------------------|
|-9--12--12s14-14--|-17-16-17-16-17-16-12-12s14-14--|
|-7--10--10s12-12--|-15-14-15-14-15-14-10-10s12-12--|

|------------------|---------------------------------|
|------------------|---------------------------------|
|------------------|---------------------------------|
|------------------|---------------------------------|
|-9--12--12s14-14--|-17-16-17-16-17-16-12-12s14-14\--|
|-7--10--10s12-12--|-15-14-15-14-15-14-10-10s12-12\--|

Verse 1

||---------------|-----------------------||
||o--------------|----------------------o||
||---------------|-----------------------||
||---------------|-5p4-5p4-5p4-----------||
||o----5--5s7-7--|-------------5-5s7-7--o||
||--7------------|-----------------------||

|------------------|---------------------------------|
|------------------|---------------------------------|
|------------------|---------------------------------|
|------------------|---------------------------------|
|-9--12--12s14-14--|-17-16-17-16-17-16-12-12s14-14---|
|-7--10--10s12-12--|-15-14-15-14-15-14-10-10s12-12---|

Verse 2

||---------------|-----------------------||-|
||o--------------|----------------------o||-|
||---------------|-----------------------||-|
||---------------|-5p4-5p4-5p4-----------||-|
||o----5--5s7-7--|-------------5-5s7-7--o||-|
||--7------------|-----------------------||-|



||----------------------|--------------------||
||o---------------------|-------------------o||
||----------------------|--------------------||
||----------------------|--------------------||
||o------5b5.5-(5)------|-------------------o||
||--7-7------------7--6-|-5-5-5--0-4-5-5-6---||

|---------------------|-------------|
|---------------------|-------------|
|---------------------|-------------|
|---------------------|-------------|
|------5b5.5-(5)------|-------------|
|-7-7------------7--6-|-5-5-5-------|

||-------------------|---------------------------------||
||o------------------|--------------------------------o||
||-------------------|---------------------------------||
||-------------------|---------------------------------||
||o-9--12--12s14-14--|-17-16-17-16-17-16-12-12s14-14--o||
||--7--10--10s12-12--|-15-14-15-14-15-14-10-10s12-12---||


Verses 3 & 4 Chorus

||---------------|-----------------------||----------|------|
||o--------------|----------------------o||----------|------|
||---------------|-----------------------||-9--------|-7----|
||---------------|-5p4-5p4-5p4-----------||-9--------|-7----|
||o----5--5s7-7--|-------------5-5s7-7--o||-7--------|-5----|
||--7------------|-----------------------||-0--------|-0----|

|------------------------|------------------------|----------|------|
|------------------------|------------------------|----------|------|
|------------------------|------------------------|-9--------|-7----|
|------------------7-8-9-|------------------7-8-9-|-9--------|-7----|
|-9-9------7-7-8-9-------|-9-9------7-7-8-9-------|-7--------|-5----|
|-7-7-7-10---------------|-7-7-7-10---------------|-0--------|-0----|

|------------------------|------------------------|
|------------------------|------------------------|
|------------------------|------------------------|
|------------------7-8-9-|------------------7-8-9-|
|-9-9------7-7-8-9-------|-9-9------7-7-8-9-------|
|-7-7-7-10---------------|-7-7-7-10---------------|

|------------------|--------------------------------|
|------------------|--------------------------------|
|------------------|--------------------------------|
|------------------|--------------------------------|
|-9--12--12s14-14--|-17-16-17-16-17-16-12-12s14-14--|
|-7--10--10s12-12--|-15-14-15-14-15-14-10-10s12-12--|

|------------------|--------------------------------|
|------------------|--------------------------------|
|------------------|--------------------------------|
|------------------|--------------------------------|
|-9--12--12s14-14--|-17-16-17-16-17-16-12-12s14-14--|
|-7--10--10s12-12--|-15-14-15-14-15-14-10-10s12-12--|

Interlude

|----------------------------------|----------------------------------|
|----------------------------------|----------------------------------|
|----------------------------------|----------------------------------|
|-11-9-----------------------------|-11-9-----------------------------|
|--------11---10---9---7-----------|--------11---10---9---7-----------|
|--------------------------7-7h9-9-|--------------------------7-7h9-9-|

Guitar Solo

|----------------------------------------|
|----------------------------------------|
|-----------------------------------9--9-|
|--------------------------9-9-9h11---11-|
|-----7-7h9-9p7---7-9-9s11---------------|
|-7h9-----------9------------------------|

|-------------------------------------------9----------|
|-------------------------------------9-------12p9-----|
|---------9-9-----------------(9)-11-11pb13--------11--|
|-11p9--------11p9----9h11-11--------------------------|
|------11----------11----------------------------------|
|------------------------------------------------------|

|-------------------------------------------------|
|---------------------------------------------(0)-|
|-11p9----9-9--------------9-9--------------9-----|
|------11-----11p9----9h11-----11p9----9h11-------|
|------------------11---------------11------------|
|-------------------------------------------------|

|-------------------------------------------|
|-------------------------------------------|
|-------------------------------------------|
|-9h11--9h11-(11)-9h11-(11)-9h11--9h11-9h11-|
|-------------------------------------------|
|-------------------------------------------|

|-------------------------------------------|
|-------------------------------------------|
|-------------------------------------------|
|-9h11--9h11-(11)-9h11-(11)-9h11--9h11-9h11-|
|-------------------------------------------|
|-------------------------------------------|


||-------------------------------------||
||o-----------------------------------o||
||-------------------------------------||
||--11-9-------------------------------||
||o--------11---10---9---7------------o||
||---------------------------7-7h9-9---||


Verse 5
||---------------|----------------------||
||o--------------|---------------------o||
||---------------|----------------------||
||---------------|-5p4-5p4-5p4----------||
||o----5--5s7-7--|-------------5-5s7-7-o||
||--7------------|----------------------||

|----------|----------|----------------|------------|--------------------|
|----------|----------|----------------|------------|--------------------|
|----------|----------|----------------|------------|--------------------|
|----------|----------|----------------|------------|--------------------|
|----------|----------|----------------|------------|--------------------|
|----------|----------|-0pb2r=====(0)--|-(0)--------|-(0)b2----(0)--(0)--|

|----------------|------------|------------|-----------------------|
|----------------|------------|------------|-----------------------|
|----------------|------------|------------|-----------------------|
|----------------|------------|------------|-----------------------|
|----------------|------------|------------|-----------------------|
|-0pb2r=====(0)--|-(0)--------|-(0)--------|-(0)b2--(0)--(0)--(0)--|

||-----------|----------|----------|-----------||-------------------|
||o----------|----------|----------|----------o||-------------------|
||-----------|----------|----------|-----------||-------------------|
||--9--------|-8--------|-7--------|-6---------||-4-5-4-5-4-5-4-----|
||o-9--------|-8--------|-7--------|-6--------o||---------------7---|
||--7--------|-6--------|-5--------|-4---------||-------------------|

|----------|----------|----------|----------|------------------|
|----------|----------|----------|----------|------------------|
|----------|----------|----------|----------|------------------|
|-9--------|-8--------|-7--------|-6--------|-4-5-4-5-4-5-4----|
|-9--------|-8--------|-7--------|-6--------|---------------7--|
|-7--------|-6--------|-5--------|-4--------|------------------|

|----------|----------|----------|----------|-----------------|-------------*|
|----------|----------|----------|----------|-----------------|-------------*|
|----------|----------|----------|----------|-----------------|-------------*|
|-9--------|-8--------|-7--------|-6--------|-4-5-4-5-4-5-4---|-------------*|
|-9--------|-8--------|-7--------|-6--------|---------------7-|-7-5-7-------*|
|-7--------|-6--------|-5--------|-4--------|-----------------|-------------*|
Tunning: Standard (E A D G B e)
-----------------------------------------------------------------------------
Iron Man - Black Sabbath
-----------------------------------------------------------------------------
Tabbed by: M. J. Furman
Email: atomic_tide@hotmail.com

Tuning: Standard

[Intro:] Bend open low E by Pressing down on string behind the nut.

e|---------------------------------------------|
B|---------------------------------------------|
G|---------------------------------------------|
D|-----7--7/9--9--12\11--12\11-12\11-7--7/9-9--|
A|--9--5--5/7--7--10\9---10\9--10\9--5--5/7-7--|
E|--7------------------------------------------| X2

e|-----------------------------------------|
B|-----------------------------------------|
G|-----------------------------------------|
D|-----------------5p4-5p4-5p4-------------|
A|--2--5--5/7--7~---------------5--5/7--7--|
E|-----------------------------------------|
Has he lost his mind? Can he see or is he blind?

e|-----------------------------------------|
B|-----------------------------------------|
G|-----------------------------------------|
D|-----------------5p4-5p4-5p4-------------|
A|--2--5--5/7--7~---------------5--5/7--7--|
E|-----------------------------------------|
Can he walk at all, or if he moves will he fall?

e|---------------------------------------------|
B|---------------------------------------------|
G|---------------------------------------------|
D|-----7--7/9--9--12\11--12\11-12\11-7--7/9-9--|
A|--9--5--5/7--7--10\9---10\9--10\9--5--5/7-7--|
E|--7------------------------------------------|

e|-----------------------------------------|
B|-----------------------------------------|
G|-----------------------------------------|
D|-----------------5p4-5p4-5p4-------------|
A|--2--5--5/7--7~---------------5--5/7--7--|
E|-----------------------------------------|
Is he live or dead? Has he thoughts within his head?

e|-----------------------------------------|
B|-----------------------------------------|
G|-----------------------------------------|
D|-----------------5p4-5p4-5p4-------------|
A|--2--5--5/7--7~---------------5--5/7--7--|
E|-----------------------------------------|
We'll just pass him there. Why should we even care?

e|-------------------------------------------|
B|-------------------------------------------|
G|-------------------------------------------|
D|-------------------------------------------|
A|----------5b-------------------------------|
E|--6/7--7------7--6--5--5--5--0h4--5--5--6--| X2
^Play the 6 first time ONLY.

e|--------------------------|
B|--------------------------|
G|--------------------------|
D|--------------------------|
A|--------5-----------------|
E|--7--7-----7--6--5--5--5--|

e|---------------------------------------------|
B|---------------------------------------------|
G|---------------------------------------------|
D|-----7--7/9--9--12\11--12\11-12\11-7--7/9-9--|
A|--9--5--5/7--7--10\9---10\9--10\9--5--5/7-7--|
E|--7------------------------------------------| X2

e|-----------------------------------------|
B|-----------------------------------------|
G|-----------------------------------------|
D|-----------------5p4-5p4-5p4-------------|
A|--2--5--5/7--7~---------------5--5/7--7--|
E|-----------------------------------------|
He was turned to steel in the great magnetic field.

e|-----------------------------------------|
B|-----------------------------------------|
G|-----------------------------------------|
D|-----------------5p4-5p4-5p4-------------|
A|--2--5--5/7--7~---------------5--5/7--7--|
E|-----------------------------------------|
When he travelled time for the future of mankind.

e|-----------------------|
B|-----------------------|
G|--------------------7--|
D|--9-----------------7--|
A|--7-----------------5--|
E|-----------------------|
Nobody wants him, he just stares at the world.

e|--------------------------------------------------------------|
B|--------------------------------------------------------------|
G|--------------------------------------------------------------|
D|--------------------------7h8--9----------------------7h8--9--|
A|--9--9---------7--7h8--9----------9--9---------7--7h8---------|
E|--7--7--7--10---------------------7--7--7--10-----------------|

e|-----------------------------|
B|-----------------------------|
G|--------------------------7--|
D|--9-----------------------7--|
A|--7-----------------------5--|
E|-----------------------------|
Planning his vengeance, that he will soon unfurl.

e|--------------------------------------------------------------|
B|--------------------------------------------------------------|
G|--------------------------------------------------------------|
D|--------------------------7h8--9----------------------7h8--9--|
A|--9--9---------7--7h8--9----------9--9---------7--7h8---------|
E|--7--7--7--10---------------------7--7--7--10-----------------|

e|-----------------------------------------|
B|-----------------------------------------|
G|-----------------------------------------|
D|-----------------5p4-5p4-5p4-------------|
A|--2--5--5/7--7~---------------5--5/7--7--|
E|-----------------------------------------|
Now the time is here for Iron Man to spread fear.

e|-----------------------------------------|
B|-----------------------------------------|
G|-----------------------------------------|
D|-----------------5p4-5p4-5p4-------------|
A|--2--5--5/7--7~---------------5--5/7--7--|
E|-----------------------------------------|
Vengeance from the grave kills the people he once saved.

e|-----------------------|
B|-----------------------|
G|--------------------7--|
D|--9-----------------7--|
A|--7-----------------5--|
E|-----------------------|
Nobody wants him, they just turn their heads.

e|--------------------------------------------------------------|
B|--------------------------------------------------------------|
G|--------------------------------------------------------------|
D|--------------------------7h8--9----------------------7h8--9--|
A|--9--9---------7--7h8--9----------9--9---------7--7h8---------|
E|--7--7--7--10---------------------7--7--7--10-----------------|

e|------------------------------------------------------------------|
B|------------------------------------------------------------------|
G|------------------------------------------------------------------|
D|--11--9---------------------------11--9---------------------------|
A|---------11--10--9--7--------------------11--10--9--7-------------|
E|-----------------------7--7h9--9-----------------------7--7h9--9--|

SOLO:
e|----------------------------------------------------------------------|
B|---------------------------------------------5-(5)---------5--5-------|
G|----------------------------------4--4--4h6-----6--6p4-----------6p4--|
D|-------2--2h4--4p2-----2--4--4/6------------------------6-------------|
A|--2h4---------------4-------------------------------------------------|
E|----------------------------------------------------------------------|

e|--------------------------9-------------------------------------------|
B|-----------------------9-----12p9------9------------------------------|
G|-----4h6--6~--(9)--11--11----------11--9--9--9b---------------9--11b--|
D|--6----------------------------------------------11--9--9h11----------|
A|----------------------------------------------------------------------|
E|----------------------------------------------------------------------|

e|-----9---------------------------------------------9-------9------------|
B|--9-----12p9--------9--12p9------9--12p9--------9-----12b-----12--9--9--|
G|-(9)----------11p9-----------11-----------11p9--------12b---------------|
D|------------------------------------------------------------------------|
A|------------------------------------------------------------------------|
E|------------------------------------------------------------------------|

e|--12b13r12--12b13r12--9h12p9------9----------------9----------------9--|
B|------------------------------12-----12--12~--12b-----12p9-------9-----|
G|------------------------------------------------------------11b-(9)----|
D|-----------------------------------------------------------------------|
A|-----------------------------------------------------------------------|
E|-----------------------------------------------------------------------|

e|-------------------------------------------------------------------------|
B|--12p9--------------------------------------------------------------(0)--|
G|--------11--11p9------9--9------------------9--9------------------9------|
D|------------------11--------11p9------9h11--------11p9------9h11---------|
A|----------------------------------11--------------------11---------------|
E|-------------------------------------------------------------------------|

e|----------------------------------------------------------------------|
B|----------------------------------------------------------------------|
G|----------------------------------------------------------------------|
D|--9h11--9h11--9h11-(11)-9h11--9h11--9h11--9h11--9h11--9h11-(11)-9h11--|
A|----------------------------------------------------------------------|
E|----------------------------------------------------------------------|

e|------------|
B|------------|
G|------------|
D|9h11--9h11--|
A|------------|
E|------------|

e|------------------------------------------------------------------|
B|------------------------------------------------------------------|
G|------------------------------------------------------------------|
D|--11--9---------------------------11--9---------------------------|
A|---------11--10--9--7--------------------11--10--9--7-------------|
E|-----------------------7--7h9--9-----------------------7--7h9--9--|

e|--------------------------------------------------------------|
B|--------------------------------------------------------------|
G|--------------------------------------------------------------|
D|--------------------------7h8--9----------------------7h8--9--|
A|--9--9---------7--7h8--9----------9--9---------7--7h8---------|
E|--7--7--7--10---------------------7--7--7--10-----------------| X2

e|---------------------------------------------|
B|---------------------------------------------|
G|---------------------------------------------|
D|-----7--7/9--9--12\11--12\11-12\11-7--7/9-9--|
A|--9--5--5/7--7--10\9---10\9--10\9--5--5/7-7--|
E|--7------------------------------------------| X2

e|-----------------------------------------|
B|-----------------------------------------|
G|-----------------------------------------|
D|-----------------5p4-5p4-5p4-------------|
A|--2--5--5/7--7~---------------5--5/7--7--|
E|-----------------------------------------|
Heavy boots of lead, fill his victims full of dread.

e|-----------------------------------------|
B|-----------------------------------------|
G|-----------------------------------------|
D|-----------------5p4-5p4-5p4-------------|
A|--2--5--5/7--7~---------------5--5/7--7--|
E|-----------------------------------------|
Running as fast as they can, Iron Man lives again.

e|-----------------------------------------|
B|-----------------------------------------|
G|-----------------------------------------|
D|-----------------------------------------|
A|--------5b-------------------------------|
E|--7--7------7--6--5--5--5--0h4--5--5--6--| X2

e|---------------------------------------------------------------|
B|---------------------------------------------------------------|
G|---------------------------------------------------------------|
D|---------------------------------------------------------------|
A|--------5------------------------------------------------------|
E|--7--7-----7--6--5--5--5-(5)~-(5)-0b-(0)-(0)-0b1r0-(0)-(0)-(0)-|

e|-----------------------------------------------|
B|-----------------------------------------------|
G|-----------------------------------------------|
D|-------------------------4--5--4--5--4h5p4-----|
A|--7p5--7~5h7p5~-7p5--7~--------------------5---|
E|-----------------------------------------------| X2

bend 1.5 and release
| | |
SOLO 2: * * *
e|----------------------------------------------------------------------10--|
B|---------------------------------------------------------8-----10/12------|
G|------------------7------7--9--9b--9b--9b--7-----7h9-(9)----9-------------|
D|-------5-----7/9----(9)-----------------------9---------------------------|
A|--5/7-----7---------------------------------------------------------------|
E|--------------------------------------------------------------------------|
| | |
* * *
--10/12------------------------------------------------------------12b--|
------------------------------------(0)-------------------------8-------|
-------------------------7--7/9--9b--9b--9b--7--9--7h9--9~--9~----------|
--------------5--7--7/9-------------------------------------------------|
---------5/7------------------------------------------------------------|
------------------------------------------------------------------------|

e|--12b--12b13r12p10--12p10--10-------------------------------------------|
B|-------------------------------12--12\10--8--/10--8---------------------|
G|-----------------------------------------------------9--7---------------|
D|-----------------------------------------------------------9\7--5--7p5--|
A|------------------------------------------------------------------------|
E|------------------------------------------------------------------------|

e|-------------------------------------14b------------------------------|
B|-------------------------------------17b--17b-17b18r17p15--17p15------|
G|--------------------------7----7--9-------------------------------16--|
D|-----5h7-------5--7--7/9----9-----------------------------------------|
A|--7-------5h7---------------------------------------------------------|
E|----------------------------------------------------------------------|
| | |
* * *
--------------------------------------------------------------------------|
--------------------------------------------------------------------------|
--16\14--0--10\9--7--7--9b--9b--9b--9b--9b--7h9p7-----7-------------------|
---------------------------------------------------9-----9\7--5--7--5--7--|
--------------------------------------------------------------------------|
--------------------------------------------------------------------------|
.5 note | |
| * *
---------------------------------------------------------------|
---------------------------------------------------------------|
-----------------------9b--9b----------------------------------|
--7b--7b--7b-r7--5-------------7/9--9--9\7--5--7p5--7p5--------|
--------------------7------------------------------------7--5--|
---------------------------------------------------------------|
Play 3X
||----------------------------------------------||---------|
||----------------------------------------------||---------|
||----------------------------------------------||---------|
||-----------------------4--5--4--5--4h5p4------||---------|
||7p5--7--5h7p5--7p5--7---------------------5--7||7--5--7--|
||----------------------------------------------||---------|

*****************************************

| / slide up
| \ slide down
| h hammer-on
| p pull-off
| ~ vibrato
| + harmonic
| x Mute note

*****************************************
Tunning: Standard (E A D G B e)
Iron Man - Black Sabbath

Tabbed by:Josh McLean (Maverick_Tabber)
Email:Maverick_Hunter_21xx@yahoo.com
Im Tired of people ruining this song with horrible tabs!! Heres the real stuff! Enjoy!
Tuning:E
Tempo=64 (Slow Rock)
Copyright 1970-1974 Westminister Music Ltd. Used by Permission

NOTE!!! THIS IS OFFICIAL !! SO STOP SAYING THAT ITS WRONG!! IM TRYING TO HELP YOU GUYS
MY GOD! I HAVE THE ACTUAL SHEET MUSIC FOR THIS SONG AND I HAD TO GET PERMISSION TO POST
ON THIS SITE.IF YOU LITTLE GIRLS OUT THERE WANNA PLAY IT THE WRONG WAY, BE MY GUEST.


e|----------------------------------------------------------------------------|
B|----------------------------------------------------------------------------|
G|----------------------------------------------------------------------------|
D|----------------------------------------------------------------------------|
A|----------------------------------------------------------------------------|
E|---0-------------------------------------0 ---------------------------------|
Bend string behind nut X2

e|---------------------------------------------------------------------------|
B|---------------------------------------------------------------------------|
G|---------------------------------------------------------------------------|
D|---------------------------------------------------------------------------|
A|----9-----12------12/14----14------17\16--17\16--17--12---12/14--14--------|
E|----7-----10------10/12----12------15\14--15\14--15--10---10/12--12--14-\--|

e|---------------------------------------------------------------------------|
B|---------------------------------------------------------------------------|
G|---------------------------------------------------------------------------|
D|---------------------------------------------------------------------------|
A|---------------------------------------------------------------------------|
E|----7-----10----10/12----12----15-14--15-14--15-14--10----10/12--12//20\---|

e|----------------------------------------------------------------------------|
B|----------------------------------------------------------------------------|
G|----------------------------------------------------------------------------|
D|----------------------------------------------------------------------------|
A|-----------5p---------------------------------------------------------------|
E|----7--7----------7---6---5--5--5----0--4--5--5--6------------5--5--5-------|
1/2
e|----------------------------------------------------------------------------|
B|----------------------------------------------------------------------------|
G|----------------------------------------------------------------------------|
D|-----------------------9------------------------------------------7---------|
A|-----------------------7------------------------------------------5---------|
E|----------------------------------------------------------------------------|

e|----------------------------------------------------------------------------|
B|----------------------------------------------------------------------------|
G|----------------------------------------------------------------------------|
D|-----------------------------7--8--9----------------------------------------|
A|---9--9---------7--7--8--9--------------------------------------------------|
E|---7--7---7-10--------------------------------------------------------------|

e|----------------------------------------------------------------------------|
B|----------------------------------------------------------------------------|
G|----------------------------------------------------------------------------|
D|---11--9--------------------------------------------------------------------|
A|-----------11----10----9-----7----------------------------------------------|
E|-----------------------------------7--7--9--9-------------------------------|
X2
GUITAR SOLO ~~Double Time
e|---------------------------------------------------------------------------|
B|-------------------------------------------------------------5-------------|
G|---------------------------------------------4---4---4---6------6----------|
D|----------2---4-- 4--2--------2---4-----4/6--------------------------------|
A|---2---4-----------------4-------------------------------------------------|
E|---------------------------------------------------------------------------|

e|----------------------------------------------------------------------------|
B|-----------5---5------------------------------------------------------------|
G|--6--4-------------6--4-------4---6-----------------------------------------|
D|--------6----------------6--------------------------------------------------|
A|----------------------------------------------------------------------------|
E|----------------------------------------------------------------------------|

e|--------------------9------------------------------------------------------|
B|--------------9p-------12-9-------9----------------------------------------|
G|-6-------11--11-------------11----9--9--9p---------------------------------|
D|----------------------------------------------11--9--9--11-----------------|
A|---------------------------------------------------------------------------|
E|---------------------------------------------------------------------------|

e|---------------9-----------------------------------------------------------|
B|-----------9------12--9-------9--12-9--------------------------------------|
G|-9-11p-------------------11-9----------------------------------------------|
D|---------------------------------------------------------------------------|
A|---------------------------------------------------------------------------|
E|---------------------------------------------------------------------------|

e|-----------------------9-------9-----------12p----12p----(12)---------------|
B|------9---12-9------9----12p------12--9--9----------------------------------|
G|--11-----------11-9---------------------------------------------------------|
D|----------------------------------------------------------------------------|
A|----------------------------------------------------------------------------|
E|----------------------------------------------------------------------------|

e|--12p--(12)--9-12-9-----9--------------------------------------------------|
B|--------------------12-----12-12p------------------------------------------|
G|---------------------------------------------------------------------------|
D|---------------------------------------------------------------------------|
A|---------------------------------------------------------------------------|
E|---------------------------------------------------------------------------|

e|-------9---------------9----------------------------------------------------|
B|--12p----12-9-------9-----12-9----------------------------------------------|
G|--------------11p--------------11--11-9-----9--9----------------------------|
D|----------------------------------------11--------11-9----9--11-------------|
A|-------------------------------------------------------11-------------------|
E|----------------------------------------------------------------------------|

e|----------------------------------------------------------------------------|
B|------------------------0---------------------------------------------------|
G|-9--9----------------9------------------------------------------------------|
D|------11-9----9--11---------------------------------------------------------|
A|-----------11---------------------------------------------------------------|
E|----------------------------------------------------------------------------|

e|---------------------------------------------------------------------------|
B|---------------------------------------------------------------------------|
G|---------------------------------------------------------------------------|
D|---9-11---9-11------9-11-----9-11----9-11---9-11----9-11----9 11---9-11----|
A|---------------------------------------------------------------------------|
E|---------------------------------------------------------------------------|

e|----------------------------------------------------------------------------|
B|----------------------------------------------------------------------------|
G|----------------------------------------------------------------------------|
D|-9-11----9-11----9-11-------------------------------------------------------|
A|----------------------------------------------------------------------------|
E|----------------------------------------------------------------------------|
Interlude ~~ END DOUBLE TIME

e|---------------------------------------------------------------------------|
B|---------------------------------------------------------------------------|
G|---------------------------------------------------------------------------|
D|---------------------------------------------------------------------------|
A|---------------------------------------------------------------------------|
E|--5----5----5--------------------------------------------------------------|
OUTRO

e|----------------------------------------------------------------------------|
B|----------------------------------------------------------------------------|
G|----------------------------------------------------------------------------|
D|----------------------------------------------------------------------------|
A|----------------------------------------------------------------------------|
E|-0--------------------------(0)---------------------------------------------|
Bend Behind Nut

e|---------------------------------------------------------------------------|
B|---------------------------------------------------------------------------|
G|---------------------------------------------------------------------------|
D|--------------------------------------4--5--4--5---4-5-4-------------------|
A|--7--5--7----5--7--5-----7--5--7-------------------------5-----------------|
E|---------------------------------------------------------------------------|

e|----------------------------------------------------------------------------|
B|----------------------------------------------------------------------------|
G|--------------------7-------------------------------------------------------|
D|---------7----7//9----9--9p-----(9)-------9p----(9) 7-9-7-9-9---------------|
A|--5/7------5----------------------------------------------------------------|
E|----------------------------------------------------------------------------|

e|--------------------1010112--12p---12p----12p----12----(12)-10-12-10--------|
B|-------8----10/12----------------------------------------------------X------|
G|---------9------------------------------------------------------------------|
D|----------------------------------------------------------------------------|
A|----------------------------------------------------------------------------|
E|----------------------------------------------------------------------------|

e|--10------------------------------------------------------------------------|
B|------1212\10--8//10---8----------------------------------------------------|
G|--------------------------9---7---------------------------------------------|
D|----------------------------------------------------------------------------|
A|----------------------------------------------------------------------------|
E|----------------------------------------------------------------------------|

e|---------------------------------------------------------------------------|
B|-----------8--------------17p-----(17)17p------(17)-----17--15-------------|
G|-----9---------------------------------------------------------------------|
D|---------------------------------------------------------------------------|
A|---------------------------------------------------------------------------|
E|---------------------------------------------------------------------------|

e|----------------------------------------------------------------------------|
B|----------------------------------------------------------------------------|
G|----------------------------------------------7-----7--9--------------------|
D|-----9\7-5--7-5-----5---7---------5--7--7//9-----9--------------------------|
A|-----------------7----------5--7--------------------------------------------|
E|----------------------------------------------------------------------------|

e|---------------------------------------------------------------------------|
B|---------------------------------------------------------------------------|
G|-9p----(9)-9p-----(9)9p---------------------------------------------9p-----|
D|---------------------------------------------------------------------------|
A|---------------------------------------------------------------------------|
E|---------------------------------------------------------------------------|

e|---------------------------------------------------------------------------|
B|---------------------------------------------------------------------------|
G|--(9)--(9)-9p---9p-----7-9-7----7------------------------------------------|
D|-----------------------------9----9\7--5--7----5--7------------------------|
A|---------------------------------------------------------------------------|
E|---------------------------------------------------------------------------|

e|---------------------------------------------------------------------------|
B|---------------------------------------------------------------------------|
G|----------------------------------(9) 9p-----(9)---------------------------|
D|-7p-----7p----7p-----(7)---5-----------------------------------------------|
A|------------------------------7--------------------------------------------|
E|---------------------------------------------------------------------------|

e|----------------------------------------------------------------------------|
B|----------------------------------------------------------------------------|
G|----------------------------------------------------------------------------|
D|-----7//9--9-----9\7--5---7---5--7---5--------------------------------------|
A|----------------------------------------7----5------------------------------|
E|----------------------------------------------------------------------------|

e|---------------------------------------------------------------------------|
B|---------------------------------------------------------------------------|
G|---------------------------------------------------------------------------|
D|---------------------------------------------------------------------------|
A|-------------------------------------------------7----5----7---------------|
E|---------------------------------------------------------------------------|

Phew thats a long one!! Just keep one thing in mind...If you see the name
know you have a Band Certified tab!!
| / slide up
| \ slide down
| h hammer-on
| p pull-off
| ~ vibrato
| + harmonic
| x Mute note
===============================================================================
Tunning: Standard (E A D G B e)
Transcribed by www.mikesguitarsite.co.ukWords and Music by Tony Iommi, John
Michael "Ozzy" Osbourne, Bill Ward & Terence "Geezer" ButlerGtr I, II (E A D G B E)
- 'Toni Iommi dist electric'

Intro
Q=69
4/4
Gtrs I, II
H W H H +W
|------|----------|--------------|--------|
|------|----------|--------------|--------|
|------|----------|--------------|--------|
|------|----------|--------------|--------|
|------|----------|--------------|--------|
|------|----------|-----*0pb2r===|=(0)----|
drum intro *bent string behind nut

+Q. +E H +W +Q +E. S +H +W
|---------------------|------------|-------------------------|--------|
|---------------------|------------|-------------------------|--------|
|---------------------|------------|-------------------------|--------|
|---------------------|------------|-------------------------|--------|
|---------------------|------------|-------------------------|--------|
|-(0)b1---(1)-0pb2r===|=(0)--------|-([0])--(0)-0pb2==(0)r===|=(0)----|


Q Q E E E. S S S S S E E E E E S S
|----------------------|----------------------------------|
|----------------------|----------------------------------|
|----------------------|----------------------------------|
|----------------------|----------------------------------|
|-9S=12--12s14-14s(17)-|-17s16-17s16-17S12-12s14-14-14----|
|-7S=10--10s12-12s(15)-|-15s14-15s14-15S10-10s12-12-12h15-|


Q Q E E E. +S S S S S E E E E E S S
|-----------------------|--------------------------------||
|-----------------------|--------------------------------||
|-----------------------|--------------------------------||
|-----------------------|--------------------------------||
|-9S=12--12s14-14--(14)-|-17s16-17s16-17S12-12s14-14-----||
|-7S=10--10s12-12--(12)-|-15s14-15s14-15S10-10s12-12-xS0-||
|-Rhy Fig 1 end Rhy Fig 1-|

Verse 1
Q=76
~
Q Q E E Q S S S S S S E E E E E
||---------------|--------------------------||
||o--------------|-------------------------o||
||---------------|--------------------------||
||---------------|-5p4-5p4-5p4--------------||
||o----5--5s7-7--|-------------5-5s7-7s15\-o||
||--7------------|--------------------------||
|-Rhy Fig 2 end Rhy Fig 2-|

Rhy Fig 1

Rhy Fig 2 x2
~~
E Q E +E Q E E E E. S E E E E
||------------------------|-------------------||
||o-----------------------|------------------o||
||------------------------|-------------------||
||------------------------|-------------------||
||o------5b5.5-(5.5)------|------------------o||
||--7-7--------------7--6-|-5-5-5--0-4-5-5-6--||


~
E Q E +E Q E E E Q H
|-----------------------|-------------|
|-----------------------|-------------|
|-----------------------|-------------|
|-----------------------|-------------|
|------5b5.5-(5.5)------|-------------|
|-7-7--------------7--6-|-5-5-5-------|


Rhy Fig 1 x2


Verse 2 & 3
$
Rhy Fig 2 x2


Chorus 1 & 2 to Coda
(from D.S. after repeat)
W W E E S S E S S E S S E E E S S E S S E S S E
||-----------|----------|------------------------|---------------------------||
||o----------|----------|------------------------|--------------------------o||
||-----------|-7--------|------------------------|---------------------------||
||--9--------|-7--------|------------------7-8-9-|------------------7-8-9----||
||o-7--------|-5--------|-9-9------7-7-8-9-------|-9-9------7-7-8-9---------o||
||--0--------|----------|-7-7-7-10---------------|-7-7-7-10------------------||
|-Rhy Fig 3 end Rhy Fig 3-|

Rhy Fig 1 x2 - D.S. al Coda


Interlude
Double Time Q=152
&
E E E E E E E E E E E E E E Q
||---------------------|-----------------||
||o--------------------|----------------o||
||---------------------|-----------------||
||--11-9---------------|-----------------||
||o--------11---10---9-|---7------------o||
||---------------------|-------7-7h9-9---||


Guitar Solo
Gtr I
E E E a E S S E E E E E E E E E E E S S E E E S S E E E
|---------------------|--------------------|--------------------------|
|---------------------|--------------------|--------------------------|
|---------------------|---------------9--9-|---------9-9--------------|
|---------------------|------9-9-9h11---11-|-11p9--------11p9----9h11-|
|-----7-7h9-9p7---7-9-|-9s11---------------|------11----------11------|
|-7h9-----------9-----|--------------------|--------------------------|


~~
Q E E E E S S E E E E +E E E E E
|-------------------9---------|-------------------------|
|-------------9-------12p9----|-9-----------------------|
|-----(9)-11-11pb13--------11-|-9-9-9b10-(10)-----------|
|-11--------------------------|---------------11-9-9h11-|
|-----------------------------|-------------------------|
|-----------------------------|-------------------------|


E E E E S S S S E S S
|--------------9------------------|
|-----------9----12p9------9-12p9-|
|-9-11b12-(12)--------11p9--------|
|---------------------------------|
|---------------------------------|
|---------------------------------|


E E S S S S E E Q E E E E Q E +E
|----------------------------|-9--------12b13--12b14r(12)-|
|----9-12p9------9-12-12b14--|---12-9-9-------------------|
|-11--------11p9------12b13--|----------------------------|
|----------------------------|----------------------------|
|----------------------------|----------------------------|
|----------------------------|----------------------------|


~~~~~~
S +E S S S E E E Q
|-12b14r(12)-9h12p9----9------------|
|-------------------12---12-12pb14--|
|-----------------------------------|
|-----------------------------------|
|-----------------------------------|
|-----------------------------------|


E E S S E E E S S E
|-------9-------------9---------|
|-12b14---12p9-----9----12p9----|
|--------------11-(9)--------11-|
|-------------------------------|
|-------------------------------|
|-------------------------------|


S S E E E S S E E E E E S S E E E E E
|--------------------------|-------------------------|
|--------------------------|--------------------(0)--|
|-11p9----9-9--------------|-9-9--------------9------|
|------11-----11p9----9h11-|-----11p9----9h11--------|
|------------------11------|----------11-------------|
|--------------------------|-------------------------|


a Q. a E +Q a Q
|--------------------------|
|--------------------------|
|--------------------------|
|-9h11----9h11-(11)--9h11--|
|--------------------------|
|--------------------------|


+E a Q. a Q a Q a Q. a E +Q a Q
|--------------------------|---------------------------|
|--------------------------|---------------------------|
|--------------------------|---------------------------|
|-(11)-9h11----9h11--9h11--|-9h11----9h11-(11)--9h11---|
|--------------------------|---------------------------|
|--------------------------|---------------------------|


+E a Q. a Q a Q E E E E E E E E E E E E +E E Q
|--------------------------||---------------------|-------------------||
|--------------------------||o--------------------|------------------o||
|--------------------------||---------------------|-------------------||
|-(11)-9h11----9h11--9h11--||--11-9---------------|-------------------||
|--------------------------||o--------11---10---9-|---7--------------o||
|--------------------------||---------------------|-------7-(7)-9-9---||


Half Time Q=76

Rhy Fig 3
Rhy Fig 1 x2


Verse 4
Rhy Fig 2 x2


1.,2. 3. Double Time Q=152
~~ ~~~
E Q E +E Q E E E E. S E E E E E E H. +W
||------------------------|-------------------||-------------|--------||
||o-----------------------|------------------o||-------------|--------||
||------------------------|-------------------||-------------|--------||
||------------------------|-------------------||-------------|--------||
||o------5b5.5-(5.5)------|------------------o||-------------|--------||
||--7-7--------------7--6-|-5-5-5--0-4-5-5-6--||-5-5-5-------|-(5)----||


Intro - interlude
+H H Wx4 Q +H. +W +W
|-------------|------------|----------------|------------|--------|
|-------------|------------|----------------|------------|--------|
|-------------|------------|----------------|------------|--------|
|-------------|------------|----------------|------------|--------|
|-------------|------------|----------------|------------|--------|
|-(5)---------|------------|-0b2===(2)r=====|=(0)--------|-(0)----|


+W W +W +W +W
|------------|-------------|------------|------------|--------|
|------------|-------------|------------|------------|--------|
|------------|-------------|------------|------------|--------|
|------------|-------------|------------|------------|--------|
|------------|-------------|------------|------------|--------|
|-(0)--------|-0pb2r=======|=(0)--------|-(0)--------|-(0)----|


Outro
~~~~~~~ ~ ~~
|-3-| |---3----|
E E Q +Q. S S W E E H. q q q Q E E E Q
||-------------------|----------|-------------|--------------------||
||o------------------|----------|-------------|-------------------o||
||-------------------|----------|-------------|--------------------||
||-------------------|----------|-------------|-4-5-4-5--4-5-4-----||
||o-7p5-7--(7)---5h7p|=5--------|-7p5-7-------|----------------5--o||
||-------------------|----------|-------------|--------------------||


Outro - Solo
Gtr I
a Q E E E E E E E E Q +E Q +E
|--------------------|----------------------------------|
|--------------------|----------------------------------|
|--------------7-----|-7----9--9b12r=====(9)-9b12r==(9)-|
|------5---7s9-----9-|----------------------------------|
|-5h7----7-----------|----------------------------------|
|--------------------|----------------------------------|
|
| Gtr II
| a Q E E E E E a E Q +E E +E E Q
|--------------------|----------------------------------|
|--------------------|----------------------------------|
|--------------7-7s9-|-9b12r==(9)---9b12-(9)------------|
|------5-7-7s9-------|----------------------------------|
|-5h7----------------|----------------------------------|
|--------------------|----------------------------------|


E +E E E E Q.
|-----------------------|
|-----------------------|
|-9b12r(9)-7---7h9------|
|------------9----------|
|-----------------------|
|-----------------------|
|
| ~
| E +E E E E E Q
|-----------------------|
|-----------------------|
|-9b12r(9)-7-9-7h9--9---|
|-----------------------|
|-----------------------|
|-----------------------|


~~~
+Q E E E E E a E Q Q E +S S S S E
|----------------10-10h12-|-12b14---12b14---------12b14r(12)p10-12p====10---------|
|------8---10s12----------|-------------------------------------------------x-----|
|-(9)----9----------------|-------------------------------------------------------|
|-------------------------|-------------------------------------------------------|
|-------------------------|-------------------------------------------------------|
|-------------------------|-------------------------------------------------------|
|
| ~~~
| H E E Q Q +E E +E E E +S S
|-------------------------|-14----------------------------------------------------|
|-----------8-------------|-17b18r=(17)---17pb19-(17)-----------17pb19r===(17)p15-|
|--9----------------------|-------------------------------------------------------|
|-------------------------|-------------------------------------------------------|
|-------------------------|-------------------------------------------------------|
|-------------------------|-------------------------------------------------------|


E E a E E E E E E
|-10---------------------------|
|-------12-12s10-8S===10-8-----|
|--------------------------9-7-|
|------------------------------|
|------------------------------|
|------------------------------|
|
| S S E a E E a E E Q
|------------------------------|
|-17p15------------------------|
|-------16-16s14-0-10s=9-7-7---|
|------------------------------|
|------------------------------|
|------------------------------|


S S E S S E E E E E E E E E E E E E Q +E E +E +E Q
|---------------------|-----------------|----------------------------------|
|---------------------|-----------------|----------------------------------|
|---------------------|---------7---7-9-|-9b12r=(9)-9b12==(12)r(9)-9b12====|
|-9s7-5-7p5---5h7-----|-5-7-7s9---9-----|----------------------------------|
|-----------7-----5h7-|-----------------|----------------------------------|
|---------------------|-----------------|----------------------------------|
|
| W W H Q Q
|---------------------|-----------------|----------------------------------|
|---------------------|-----------------|----------------------------------|
|---------------------|-----------------|--------------------------9b12r===|
|---------------------|-----------------|----------------------------------|
|---------------------|-----------------|----------------------------------|
|---------------------|-----------------|----------------------------------|


|-3-|
+E +E Q Q S S S E
|----------------------------------|
|----------------------------------|
|-(9)r(9)---9b12-----9b12--7h9p7---|
|--------------------------------9-|
|----------------------------------|
|----------------------------------|
|
| +E Q +E H
|----------------------------------|
|----------------------------------|
|-(9)--9b12r=====(9)---------------|
|----------------------------------|
|----------------------------------|
|----------------------------------|


Q a E E Q E E Q Q E +E E E
|------------------|---------------------------||
|------------------|---------------------------||
|-7----------------|---------------------------||
|----9s7-5-7---5-7-|---7b8---7b8---7b8r(7)-5---||
|------------------|-------------------------7-||
|------------------|---------------------------||
|
| H E E Q a E E E E E E E E
|------------------|---------------------------||
|------------------|---------------------------||
|------------------|---------------------------||
|----------7s9-9---|-9s7---5-7p==5-7p===5------||
|------------------|-----------------------7-5-||
|------------------|---------------------------||


Outro
Gtrs I, II
~~~~~~~ ~ ~~
E E Q +Q. S S W E E H.
||-------------------|----------|-----------|
||o------------------|----------|-----------|
||-------------------|----------|-----------|
||-------------------|----------|-----------|
||o-7p5-7--(7)---5h7p|=5--------|-7p5-7-----|
||-------------------|----------|-----------|


1.,2. 3.
|-3-| |---3---| |-3-| |---3---|
Q Q Q Q E E E Q Q Q Q Q E E E Q E E Q H
|------------------||-----------------|-------------*|
|-----------------o||-----------------|-------------*|
|------------------||-----------------|-------------*|
|-4-5-4-5-4-5-4----||-4-5-4-5-4-5-4---|-------------*|
|---------------5-o||---------------7-|-7-5-7-------*|
|------------------||-----------------|-------------*|
Tunning: Standard (E A D G B e)
Black Sabbath
Iron Man
Tabber: Brian Gelvin
E-mail: deep_hard_metal_thrasher@yahoo.com


Most people have almost exactly right but the intro and the main part.
Also if you watch them live Tony always plays on the E and A string just really high.


NOTE:Before you start to play this you MUST listen to the song again.
otherwise you won't be able to hear how it REALLY sounds.


Key:
b=bend 1/2 step
B=bend 1 step
^=bend 1 1/2 step
r=return bend
/=slide up
\=slide down
h=hammer
p=pull off



Standard Tuning
Intro:
|----------------------------------------|
|----------------------------------------|
|----------------------------------------|
|----------------------------------------|
|----------------------------------------|
|1b-----r------1B-----r-----1b-----r-----|
I am Iron man


|-----------------------------------------------------|
|o---------------------------------------------------o|
|-----------------------------------------------------|
|-----------------------------------------------------|
|o10--13--13/15--15---18\17-18\17-18--13--13/15--15--o|
|-8---11--11/13--13---16\15-16\15-16--11--11/13--13---|


Verse:
|----------------------------------------------------|
|o--------------------------------------------------o|
|----------------------------------------------------|
|----------------------------------------------------|
|o--------------------------------------------------o|
|-8--11--11/13--13---16\15-16\15-16--11--11/13--13---|
Has he lost his mind? Can he see or is he blind?


|---------------------------------------------------|
|---------------------------------------------------|
|---------------------------------------------------|
|---------------------------------------------------|
|10--13--13/15--15---18\17-18\17-18--13--13/15--15--|
|8---11--11/13--13---16\15-16\15-16--11--11/13--13--|


|----------------------------------------------------|
|o--------------------------------------------------o|
|----------------------------------------------------|
|----------------------------------------------------|
|o--------------------------------------------------o|
|-8--11--11/13--13---16\15-16\15-16--11--11/13--13---|


|---|--------------------------------------|-------------------------|
|---|o------------------------------------o|-------------------------|
|---|--------------------------------------|-------------------------|
|---|--------------------------------------|-------------------------|
|---|o------6-----------------------------o|------6------------------|
|-7/|-8--8------8--7--6--6--6--0h5--6--7---|8--8------8--7--6--6--6--|


|---------------------------------------------------|
|---------------------------------------------------|
|---------------------------------------------------|
|---------------------------------------------------|
|10--13--13/15--15---18\17-18\17-18--13--13/15--15--|
|8---11--11/13--13---16\15-16\15-16--11--11/13--13--|


|----------------------------------------------------|
|o--------------------------------------------------o|
|----------------------------------------------------|
|----------------------------------------------------|
|o--------------------------------------------------o|
|-8--11--11/13--13---16\15-16\15-16--11--11/13--13---|


Bridge:
|-------------------|
|-------------------|
|-------------------|
|10--------8--------|
|8---------6--------|
|-------------------|


|------------------------------|
|------------------------------|
|------------------------------|
|-----------------------8h9-10-|
|10--10-------8--8h9-10--------|
|8---8---8-11------------------|


|-------------------|
|-------------------|
|-------------------|
|10--------8--------|
|8---------6--------|
|-------------------|


|----------------------------------------------------|
|o--------------------------------------------------o|
|----------------------------------------------------|
|----------------------------------------------------|
|o--------------------------------------------------o|
|-8--11--11/13--13---16\15-16\15-16--11--11/13--13---|


|-------------------|
|-------------------|
|-------------------|
|10--------8--------|
|8---------6--------|
|-------------------|


|------------------------------|
|------------------------------|
|------------------------------|
|-----------------------8h9-10-|
|10--10-------8--8h9-10--------|
|8---8---8-11------------------|


|------------------------|
|o----------------------o|
|------------------------|
|-12-10------------------|
|o------12-11-10-8------o|
|------------------8h10--|


Solo:
|------------------------------------------------------------------------|
|------------------------------------------------------------------------|
|------------------------------------------10-10----------10-10----------|
|------------------------------10-10-10h12-------12p10----------12p10----|
|-----8h10-10p8-----8h10-10/12-------------------------12-------------12-|
|8h10-----------h10------------------------------------------------------|


|---------------10-------------------------------------------------|
|-----------/10----13-10----------------------------10-13p10----10-|
|------------------------12-10-10-------------10h12----------12----|
|10h12-12-------------------------12-10-10h12----------------------|
|------------------------------------------------------------------|
|------------------------------------------------------------------|


|---------------------------10----------/15-15-15-15p13--------|
|13p10----10-13p10----10-13----13-10-10-----------------h15-15-|
|------12----------12------------------------------------------|
|--------------------------------------------------------------|
|--------------------------------------------------------------|
|--------------------------------------------------------------|


|------10-10----------------------------------------------------|
|13-15-------13p10-----10-13-13p10------------------------------|
|------------------h12-------------h12-12p10-----10-10----------|
|--------------------------------------------h12-------13p10----|
|------------------------------------------------------------12-|
|---------------------------------------------------------------|


|--------------------------------------------------------------------------------|
|--------------------------------------------------------------------------------|
|--------------------------------------------------------------------------------|
|10h13-10h13-10h13-10h13-10h13-12-12-10-------------------12-10------------------|
|---------------------------------------12-11-10-8--------------12-11-10-8-------|
|--------------------------------------------------8-8/10------------------8-8/9-|


|------------------------|
|o----------------------o|
|------------------------|
|-12-10------------------|
|o------12-11-10-8------o|
|------------------8h10--|


|------------------------------|
|------------------------------|
|------------------------------|
|-----------------------8h9-10-|
|10--10-------8--8h9-10--------|
|8---8---8-11------------------| 4x


|-----------------------------------------------------|
|o---------------------------------------------------o|
|-----------------------------------------------------|
|-----------------------------------------------------|
|o10--13--13/15--15---18\17-18\17-18--13--13/15--15--o|
|-8---11--11/13--13---16\15-16\15-16--11--11/13--13---|


|----------------------------------------------------|
|o--------------------------------------------------o|
|----------------------------------------------------|
|----------------------------------------------------|
|o--------------------------------------------------o|
|-8--11--11/13--13---16\15-16\15-16--11--11/13--13---|


|---|--------------------------------------|-------------------------|
|---|o------------------------------------o|-------------------------|
|---|--------------------------------------|-------------------------|
|---|--------------------------------------|-------------------------|
|---|o------6-----------------------------o|------6------------------|
|-7/|-8--8------8--7--6--6--6--0h5--6--7---|8--8------8--7--6--6--6--|


|----------------------------------------|
|----------------------------------------|
|----------------------------------------|
|----------------------------------------|
|----------------------------------------|
|1b-----r------1B-----r-----1b-----r-----|


|---------------------------------------------------|
|o-------------------------------------------------o|
|---------------------------------------------------|
|------------------------------5--6--5--6--5h6p5----|
|o8p6--8----6h8p6----8p6--8----------------------5-o|
|---------------------------------------------------|


Outro Solo:
|----------------------------------------------------------------------------10--|
|--------------------------------------------------------------9------11/13------|
|-----------------7------8--10--10^--10^--10^--8------8h10--------10-------------|
|-----6-----8/10----------------------------------10-----------------------------|
|6/8-----8-----------------------------------------------------------------------|
|--------------------------------------------------------------------------------|


|11/13-------------------------------------------------------------------13b--|
|--------------------------------------0------------------------------9-------|
|------------------------8--8/10--10^--10^--10^--8--10--8h10--10--10----------|
|------------6--8--8/10-------------------------------------------------------|
|-------6/8-------------------------------------------------------------------|
|-----------------------------------------------------------------------------|


hold bend
| - - - -|
|13b--13b-14-r-13p11--13p11--11---------------------------------------------|
|--------------------------------13--13\11--9--/11--9-----------------------|
|------------------------------------------------------10--8----------------|
|-------------------------------------------------------------10\8--6--8p5--|
|---------------------------------------------------------------------------|
|---------------------------------------------------------------------------|

| - - - -|
|--------------------------------------15b---------------------------------|
|--------------------------------------18b--18b-18b-19-r-18p16--18p16------|
|-------------------------8------8--9----------------------------------17--|
|---6h8-------6--8--8/10-----10--------------------------------------------|
|8-------6h8---------------------------------------------------------------|
|--------------------------------------------------------------------------|


|-------------------------------------------------------------------|
|-------------------------------------------------------------------|
|----------------------10^--10^-------------------------------------|
|8b--8b--8b-r-8--6---------------8/10--10--10\8--6--8p6--8p6--------|
|-------------------8-----------------------------------------8--6--|
|-------------------------------------------------------------------|


|-------------------------------------------------|3x
|o-----------------------------------------------o|
|-------------------------------------------------|
|------------------------5--6--5--6--5h6p5--------|
|o8p6--8--6h8p6--8p6--8---------------------6--8-o|
|-------------------------------------------------|


|---------|
|---------|
|---------|
|---------|
|8--6--8--|
|---------|


Enjoy.
Tunning: Standard (E A D G B e)
Wassup people! This is the real deal! The entire song of iron man 9s not included) it
like 3 months to figure this out and plus it's my first tab so don't u fucking diss me!


Intro ( *0* means bend down behind nut (Where you tune your strings)
e--------------------------------------------------------------|
B--------------------------------------------------------------|
G--------------------------------------------------------------|
D--------------------------------------------------------------|
A--------------------------------------------------------------|
E---*0*-----------------*0*--------------------------*0*-------|


Main Rift

e--------------------------------------------------------------|
B--------------------------------------------------------------|
G--------------------------------------------------------------|
D--4---7--7--9--9---12/10/12/10/12/10----7-7-9-9---------------| X 2
A--2---5--5--7--7---10/9/10/ 9/ 10/9-----5-5-7-7---------------|
E--------------------------------------------------------------|

Rift 1
e--------------------------------------------------------------|
B--------------------------------------------------------------|
G--------------------------------------------------------------|
D--------------------------------------------------------------| X 2
A-----5--5---7-7----10-9-10-9-10-9--5--5---7--7----------------|
E--7-----------------------------------------------------------|


e--------------------------------------------------------------|
B--------------------------------------------------------------|
G--------------------------------------------------------------|
D--4---7--7--9--9---12/10/12/10/12/10----7-7-9-9---------------|
A--2---5--5--7--7---10/9/10/ 9/ 10/9-----5-5-7-7---------------|
E--------------------------------------------------------------|


e--------------------------------------------------------------|
B--------------------------------------------------------------|
G--------------------------------------------------------------|
D--------------------------------------------------------------| X 2
A-----5--5---7-7----10-9-10-9-10-9--5--5---7--7----------------|
E--7-----------------------------------------------------------|

Rift 2
e--------------------------------------------------------------|
B--------------------------------------------------------------|
G--------------------------------------------------------------|
D--------------------------------------------------------------|
A-----------5--------------------------------5-----------------|
E--7-7-7-7----7-6-5-5-5-0h4-5-5-5-6-7-7-7-7----7-6-5-5-5-0h4---|

e--------------------------------------------------------------|
B--------------------------------------------------------------|
G--------------------------------------------------------------|
D--------------------------------------------------------------|
A------------------5-------------------------------------------|
E-5-5-5-6-7-7-7-7----7-6-5-5-5-0h4-5-5-5-6-7-7-7---------------|

e--------------------------------------------------------------|
B--------------------------------------------------------------|
G--------------------------------------------------------------|
D--4---7--7--9--9---12/10/12/10/12/10----7-7-9-9---------------| X 2
A--2---5--5--7--7---10/9/10/ 9/ 10/9-----5-5-7-7---------------|
E--------------------------------------------------------------|

e--------------------------------------------------------------|
B--------------------------------------------------------------|
G--------------------------------------------------------------|
D--------------------------------------------------------------| X 2
A-----5--5---7-7----10-9-10-9-10-9--5--5---7--7----------------|
E--7-----------------------------------------------------------|


Rift 3
e--------------------------------------------------------------|
B--------------------------------------------------------------|
G--------------------------------------------------------------|
D--9---7----------------------7-8-9----------------------7-8-9-| X 2
A--7---5--9--9-------7--7-8-9--------9--9-------7--7-8-9-------|
E---------7--7--7-10-----------------7--7--7-10----------------|


e--------------------------------------------------------------|
B--------------------------------------------------------------|
G--------------------------------------------------------------|
D--4---7--7--9--9---12/10/12/10/12/10----7-7-9-9---------------| X 2
A--2---5--5--7--7---10/9/10/ 9/ 10/9-----5-5-7-7---------------|
E--------------------------------------------------------------|


e--------------------------------------------------------------|
B--------------------------------------------------------------|
G--------------------------------------------------------------|
D--------------------------------------------------------------| X 2
A-----5--5---7-7----10-9-10-9-10-9--5--5---7--7----------------|
E--7-----------------------------------------------------------|

e--------------------------------------------------------------|
B--------------------------------------------------------------|
G--------------------------------------------------------------|
D--9---7----------------------7-8-9----------------------7-8-9-| X 2
A--7---5--9--9-------7--7-8-9--------9--9-------7--7-8-9-------|
E---------7--7--7-10-----------------7--7--7-10----------------|


Pre Solo
e--------------------------------------------------------------|
B--------------------------------------------------------------|
G--------------------------------------------------------------|
D-11-9-------------------11-9----------------------------------|
A------11-10-9-7--------------11-10-9-7------------------------|
E----------------7-7/9-9----------------7-7h9------------------|


Solo
e-----------------------------------------------------------|
b-----------------------------------------------------------|
g---------------------------------------------9--(9)--------|
d----------------------------------9--9--9h11-----11--11p9--|
a-------7--7h9--9p7-----7--9--9/11--------------------------|
e--7-h9--------------9--------------------------------------|

e----------------------------------------9---------------------|
b-----------------------------------9------12p9----9-----------|
g-----9--9-------------------x--11--11b---------11-9-9--9b(10)-|
d----------11p9----9h11--11------------------------------------|
a-11------------11---------------------------------------------|
e--------------------------------------------------------------|

e-------------------------9--------------------------------------|
b----------------------9----12p9-------9-12p9------9--12-12b(14)-|
g--------------9--11b--9---------11p9---------11p9-------12b(13)-|
d-11--9--9h11----------------------------------------------------|
a----------------------------------------------------------------|
e----------------------------------------------------------------|

e-9-----------12b(13)-12b14r12-12b13r12-9h12p9----9---------|
b---12--9--9-----------------------------------12---12-12b--|
g-----------------------------------------------------------|
d-----------------------------------------------------------|
a-----------------------------------------------------------|
e-----------------------------------------------------------|

e-----9---------------------------------------------------|
b-12b---12p9------9--12p9---------------------------------|
g------------11b--9--------11--11p9-----9--9--------------|
d------------------------------------11------11p9----9h11-|
a-------------------------------------------------11------|
e---------------------------------------------------------|

e------------------------------------------------------------|
b----------------------0-------------------------------------|
g-9--9--------------9----------------------------------------|
d------11p9----9h11-------9h11--9h11--9h11--9h11--9h11--9h11-|
a-----------11-----------------------------------------------|
e------------------------------------------------------------|

e--------------------------------------------------------------------|
b--------------------------------------------------------------------|
g--------------------------------------------------------------------|
d-9h11--9h11--9h11--9h11--9h11--9h11---11--9-------------------------|
a---------------------------------------------11-10--9--7------------|
e----------------------------------------------------------7--7h9--9-|

e-------------------------------------------------------|
B-------------------------------------------------------|
G-------------------------------------------------------|
D----------------------7-8-9----------------------7-8-9-|
A--9--9-------7--7-8-9--------9--9-------7--7-8-9-------|
E--7--7--7-10-----------------7--7--7-10----------------|

e-------------------------------------------------------|
B-------------------------------------------------------|
G-------------------------------------------------------|
D----------------------7-8-9----------------------7-8-9-|
A--9--9-------7--7-8-9--------9--9-------7--7-8-9-------|
E--7--7--7-10-----------------7--7--7-10----------------|

e--------------------------------------------------------------|
B--------------------------------------------------------------|
G--------------------------------------------------------------|
D--4---7--7--9--9---12/10/12/10/12/10----7-7-9-9---------------| X 4
A--2---5--5--7--7---10/9/10/ 9/ 10/9-----5-5-7-7---------------|
E--------------------------------------------------------------|

e--------------------------------------------------------------|
B--------------------------------------------------------------|
G--------------------------------------------------------------|
D--------------------------------------------------------------|
A-----------5--------------------------------5-----------------|
E--7-7-7-7----7-6-5-5-5-0h4-5-5-5-6-7-7-7-7----7-6-5-5-5-0h4---|

e--------------------------------------------------------------|
B--------------------------------------------------------------|
G--------------------------------------------------------------|
D--------------------------------------------------------------|
A------------------5-------------------------------------------|
E-5-5-5-6-7-7-7-7----7-6-5-5-5-0h4-5-5-5-6-7-7-7---------------|


Outro (Once again *0* means bend down behind nut [Where you tune your strings])
e--------------------------------------------|
B--------------------------------------------|
G--------------------------------------------|
D--------------------------------------------|
A--------------------------------------------|
E---*0*-----------------*0*------------------|

e------------------------------------------------------------------------|
b------------------------------------------------------------------------|
go-----------------------------------------------------------------------|o
do------------------------------------------------4--5--4---5--4h5p4-----|o
a--------------------------------------------------------------------5---|
e------------------------------------------------------------------------|

e-------------------------------------------------------------|
b-------------------------------------------------------------|
g---------------------7-----7--9--9b(12)---9b(12)---9b(12)r9--|
d--------5------7//9-----9------------------------------------|
a--5/7-------7------------------------------------------------|
e-------------------------------------------------------------|

e--------------------------------10--10h12--12b--12b--12br12p10-12p10-|
b--------------------8----10//12--------------------------------------|
g--7-----7--h9vvvvv-----9---------------------------------------------|
d-----9---------------------------------------------------------------|
a---------------------------------------------------------------------|
e---------------------------------------------------------------------|

e-10-------------------------------------------------------|
b----12--12\\10--8//10--8----------------------------------|
g--------------------------9--7----------------------------|
d---------------------------------9\7--5--7p5----5h7-------|
a---------------------------------------------7------5h7---|
e----------------------------------------------------------|

e------------------------------------------------------------|
b------------------------------------------------------------|
g--------------7-----7--9--9b(12)---9b(12)---9b(12)---9b(12)-|
d--5--7--7//9-----9------------------------------------------|
a------------------------------------------------------------|
e------------------------------------------------------------|

e-----------------------------------------------------------|
b-----------------------------------------------------------|
g--7h9p7----7-----------------------------------------------|
d--------9-----9\7--5--7---5--7--7b(8)--7b(8)--7b(8)r--5----|
a---------------------------------------------------------7-|
e-----------------------------------------------------------|

e------------------------------------------------------------------------|
b------------------------------------------------------------------------|
go-----------------------------------------------------------------------|o
do------------------------------------------------4--5--4---5--4h5p4-----|o
a--7__p5--7vvvvvv---5h7p5vvvvvv---7__p5--7vvvvvv---------------------5---|
e------------------------------------------------------------------------|

e----------|
b----------|
g----------|
d----------|
a-7__p5--7-|
e----------|


There it is the whole song of iron man enjoy!
Tunning: Standard (E A D G B e)
----------------------------------------------------------------------------
Iron Man - Ozzy Osbourne
----------------------------------------------------------------------------
Tabbed by:kota1122
Email:drichards11@yahoo.com

Tuning:Standard


for first part 1st fret with half bend and do this 3 times

Intro Riff
e|----------------------------------------------------------------|
B|----------------------------------------------------------------|
G|----------------------------------------------------------------|
D|----------------------------------------------------------------|
A|---9----12--12\14-14----17/16-17/16-17-12-12\14-14--------------|
E|---7----10--10\12-12----15/14-15/14-15-10-10\12-12--------------|

Verse
e|----------------------------------------------------------------|
B|----------------------------------------------------------------|
G|----------------------------------------------------------------|
D|----------------------------------------------------------------|
A|----------------------------------------------------------------|
E|---7----10--10\12-12----15/14-15/14-15-10-10\12-12--------------|


Riff 2
e|------------------------------------------------------|-----------------|
B|------------------------------------------------------|-----------------|
G|------------------------------------------------------|-----------------|
D|------------------------------------------------------|-----------------|
A|-----5-------------------------5----------------------|-----5-----------|
E|-7-7---7-6-5-5-5-0h4-5-5-6-7-7---7-6-5-5-5-0h4-5-5-6--|-7-7---7-6-5-5-5-|

Bridge
e|--------------|------------------------------------------------------|
B|--------------|------------------------------------------------------|
G|--------------|------------------------------------------------------|
D|--------------|---------------------7-8-9----------------------7-8-9-|
A|-12-------14--|-9--9-------7--7-8-9--------9--9-------7--7-8-9-------|
E|-10-------12--|-9--9-------7--7-8-9--------9--9-------7--7-8-9-------|

Solo
e|---------------------------------------------|
B|---------------------------------------------|
G|---------------------------------------------|
D|-11-9-------------------11-9-----------------|
A|------11-10-9-7--------------11-10-9-7-------|
E|----------------7-7/9-9----------------7-7h9-|

e|----------------------------------------------------------|
B|----------------------------------------------------------|
G|----------------------------------9-9---------9-9---------|
D|-------------------------9-9-9h11-----11p9--------11p9----|
A|-----7h9-9p7----7h9-9/11-------------------11----------11-|
E|-7h9---------9h-------------------------------------------|

e|--------------9-------------------------------------------|
B|-----------/9---12-9-----------------------9-12p9----9----|
G|---------------------11-9-9-----------9h11--------11------|
D|-9h11-11--------------------11-9-9h11---------------------|
A|----------------------------------------------------------|
E|----------------------------------------------------------|

e|------------------------9--------/14-14-14-14p12----------|
B|-12p9----9-12p9----9-12---12-9-9-----------------14h-14---|
G|------11--------11----------------------------------------|
D|----------------------------------------------------------|
A|----------------------------------------------------------|
E|----------------------------------------------------------|

e|--------9-9-----------------------------------------------|
B|-12-14------12p9-----9-12-12p9----------------------------|
G|-----------------11h-----------11h-11p9-----9-9-----------|
D|----------------------------------------11h-----11p9------|
A|-----------------------------------------------------11---|
E|----------------------------------------------------------|

e|----------------------------------------------------------|
B|----------------------------------------------------------|
G|------9-9---------------9---------------------------------|
D|-9h11-----11p9-----9h11---9-9h11-9h11-9h11-9h11-9h11-11---|
A|---------------11h----------------------------------------|
E|----------------------------------------------------------|

e|----------------------------------------------------------|
B|----------------------------------------------------------|
G|----------------------------------------------------------|
D|-9h11-9h11-9h11-9h11-9h11-11-11-9-----------------11-9----|
A|----------------------------------11-10-9-7------------11-|
E|--------------------------------------------7-7/9---------|

e|--------------|
B|--------------|
G|--------------|
D|--------------|
A|-10-9-7-------|
E|--------7-7/9-|

Solo 2
e|--------------------------------------------------------------------|
B|--------------------------------------------------------------------|
G|--------------------------------------------------------------------|
D|-------------------4-5-4-5-4h5p4--------------------4-5-4-5-4h5p4---|
A|-7h5-7-5h7p5-7h5-7---------------57h5-7-5h7p5-7h5-7---------------5-|
E|--------------------------------------------------------------------|

e|--------------------------------------------------10-10h12----------|
B|----------------------------------------8---10/12-------------------|
G|-------------7---7-9-9^-9^-9^--7---7h9----9-------------------------|
D|-----5---7/9---9-----------------9----------------------------------|
A|-5/7---7------------------------------------------------------------|
E|--------------------------------------------------------------------|

e|--------------------------------------------------------------------|
B|-----------------------------------------5v----8--------------------|
G|--------------7--7h9-9^-9^-9^-7--7-9-7h9----9v----------------------|
D|-----5-7--7/9-------------------------------------------------------|
A|-5h7----------------------------------------------------------------|
E|--------------------------------------------------------------------|

e|-12^-12^-12^-10---10-----------------------------------------------|
B|----------------X----12-12\10-8/10-8-------------------------------|
G|-------------------------------------9-7---------------------------|
D|-----------------------------------------9\7-5-7h5---7p5-----5-7---|
A|---------------------------------------------------7-----5h7-------|
E|-------------------------------------------------------------------|

e|--------------14^---------------------------------------------------|
B|--------------17^--17^--17^--15--17h15------------------------------|
G|-----7---7-9---------------------------16-16\14--0--10\9--7--7------|
D|-7/9---9------------------------------------------------------------|
A|--------------------------------------------------------------------|
E|--------------------------------------------------------------------|

e|--------------------------------------------------------------------|
B|--------------------------------------------------------------------|
G|-9^-9^-9^-9^-9^--7h9p7---7------------------------------------------|
D|-----------------------9---9\7-5-7--5-7--7^-7^-7^--5----------------|
A|------------------------------------------------------7-------------|
E|--------------------------------------------------------------------|

e|--------------------------------------------------------------------|
B|--------------------------------------------------------------------|
G|-9^-9^--------------------------------------------------------------|
D|-------7/9--9--9\7--7h5--7p5----------------------------------------|
A|------------------------------7--5----------------------------------|
E|--------------------------------------------------------------------|

e|----------------|
B|----------------|
G|----------------|
D|----------------|
A|---7---5--7-----|
E|----------------|


| / slide up
| \ slide down
| h hammer-on
| p pull-off
| ~ vibrato
| + harmonic
| x Mute note


I am Iron Man.

Has he lost his mind?
Can he see or is he blind?
Can he walk at all,
Or if he moves will he fall?

Is he alive or dead?
Has he thoughts within his head?
We'll just pass him there
Why should we even care?

He was turned to steel
In the great magnetic field
When he travelled time
For the future of mankind

Nobody wants him
He just stares at the world
Planning his vengeance
That he will soon unfurl

Now the time is here
For Iron Man to spread fear
Vengeance from the grave
Kills the people he once saved

Nobody wants him
They just turn their heads
Nobody helps him
Now he has his revenge

Heavy boots of lead
Fills his victims full of dread
Running as fast as they can
Iron Man lives again!

This is really a Black Sabbath song but Ozzy has rights to this song as well

Ok now this is the order:
Intro Riff-x2
Verse-x2
Intro Riff-x1
Verse-x2
Riff 2
Intro Riff-x1
Verse-x2
Bridge-x2
Intro Riff-x2
Verse x2
Bridge-x2
Solo
Bridge(2nd half of the Bridge)-2x
Intro Riff-x2
Verse-x2
Riff 2
1st fret with half bend-2x
Solo 2

And that's about it.
Song info
Iron Man
Black Sabbath
2001
  • Rock
  • Hard Rock
  • Heavy Metal
Alternative tracks
Similar songs
Bleed The Freak - Alice in Chains
Were Not Gonna Take It - Twisted Sister
Back On The Streets - Gary Moore
A Secret Place - Megadeth
Poundcake - Van Halen

Hi! Hope you enjoy backing track experience.
If you want to help us in the development of the project, feel free to donate!