All The Small Things - Blink 182
00:00 / 00:00
Tabs and lyrics
Tunning: Nashville (E A D G B E)
[INTRO]

E|-------|
B|-------|
G|-------|
D|--5-3--|
A|--5-3--|
E|--3-1--|


[RIFF 1]

E|------------------------------------------------------------------|
B|------------------------------------------------------------------|
G|--5-5-5-5-5-5-5-5--5-5-5-5-5-5-5-5--------------------------------|
D|--5-5-5-5-5-5-5-5--3-3-3-3-3-3-3-3-5-5-5-5-5-5-5-5---------3-3-3--| x2
A|--3-3-3-3-3-3-3-3------------------x-x-x-x-x-x-x-x-0-0-0-0-3-3-3--|
E|-----------------------------------3-3-3-3-3-3-3-3---------1-1-1--|
PM---------|

[VERSE 1]

(PALM MUTE)

E|-------------------------------------------------------------------------|
B|-------------------------------------------------------------------------|
G|-------------------------------------------------------------------------| x4
D|--5-5-5-5-5-5-5-5--------------------------------------------------------|
A|--3-3-3-3-3-3-3-3-5-5-5-5-5-5-5-5--3-3-3-3-3-3-3-3--5-5-5-5-5-5-5-5------|
E|------------------3-3-3-3-3-3-3-3--1-1-1-1-1-1-1-1--3-3-3-3-3-3-3-3------|


[RIFF 2]

LET RING

E|---------------|
B|---------------|
G|--5------------|
D|--5------------|
A|--3------------|
E|-------3----1--|


[CHORUS]

E|------------------------------------------------------------------------|
B|------------------------------------------------------------------------|
G|--5-5-5-5-5-5-5-5-5-5-5-5-5-5-5-5---------------------------------------| x2
D|--5-5-5-5-5-5-5-5-5-5-5-5-5-5-5-5-5-5-5-5-5-5-5-5--3-3-3-3-3-3-3-3------|
A|--3-3-3-3-3-3-3-3-3-3-3-3-3-3-3-3-x-x-x-x-x-x-x-x--3-3-3-3-3-3-3-3------|
E|----------------------------------3-3-3-3-3-3-3-3--1-1-1-1-1-1-1-1------|


[RIFF 3]

E|-------------------------------------------------------------------|
B|-------------------------------------------------------------------|
G|-5-5-5-5-5-5-5-5--10-10-10--9-9-9--7-7-7-7-7-7-7-7-----------------|
D|-5-5-5-5-5-5-5-5--10-10-10—-9-9-9--x-x-x-x-x-x-x-x-7-7-7-7--3-3-3--| x2
A|-3-3-3-3-3-3-3-3---8--8--8--7-7-7--5-5-5-5-5-5-5-5-7-7-7-7--3-3-3--|
E|---------------------------------------------------5-5-5-5--1-1-1--|
PM-------|

[VERSE 2]

(PALM MUTE)
E|------------------------------------------------------------------------|
B|------------------------------------------------------------------------|
G|------------------------------------------------------------------------| x2
D|--5-5-5-5-5-5-5-5-------------------------------------------------------|
A|--3-3-3-3-3-3-3-3-5-5-5-5-5-5-5-5--3-3-3-3-3-3-3-3--5-5-5-5-5--5-5-5----|
E|------------------3-3-3-3-3-3-3-3--1-1-1-1-1-1-1-1--3-3-3-3-3--3-3-3----|


[RIFF 4]

LET RING
E|---------------|
B|---------------|
G|--5------------|
D|--5------------|
A|--3------------|
E|-------3----1--|


[CHORUS]
RIFF 5 LET RING
E|----------------------------------------------------------------------| e|-----|
B|----------------------------------------------------------------------| B|-----|
G|--5-5-5-5-5-5-5-5-5-5-5-5-5-5-5-5-------------------------------------| G|--5--|
D|--5-5-5-5-5-5-5-5-5-5-5-5-5-5-5-5--5-5-5-5-5-5-5-5--3-3-3-3-3-3-3-3---|x2 D|--x--|
A|--3-3-3-3-3-3-3-3-3-3-3-3-3-3-3-3--5-5-5-5-5-5-5-5--3-3-3-3-3-3-3-3---| A|--3--|
E|-----------------------------------3-3-3-3-3-3-3-3--1-1-1-1-1-1-1-1---| E|-----|


[INTERLUDE]

E|---------|
B|---------|
G|--5------| LET RING
D|--x------|
A|--3---5--|
E|---------|

(PALM MUTE) PLAY 4 TIMES ENDING INTERLUDE
E|-----------------------------| e|------------------------------------------------------------------|
B|-----------------------------| B|------------------------------------------------------------------|
G|--5—-5--5--5--4--4--7--7-----| G|--5-5-5-5-5-5-5-5-5-5-5-5-5-5-5-5---------------------------------|
D|----5--5--5--5--5--5--5--5---| D|--5-5-5-5-5-5-5-5-5-5-5-5-5-5-5-5-3-3-3-3-3-3-3-3--5-5-5-5-5-5-5-5|
A|-----------------------------| A|--3-3-3-3-3-3-3-3-3-3-3-3-3-3-3-3-3-3-3-3-3-3-3-3--5-5-5-5-5-5-5-5|
E|-----------------------------| E|----------------------------------1-1-1-1-1-1-1-1--3-3-3-3-3-3-3-3|
PM--------------------------------------------------------|


[CHORUS]

E|---------------------------------------------------------------------------|
B|---------------------------------------------------------------------------|
G|--5-5-5-5-5-5-5-5-5-5-5-5-5-5-5-5------------------------------------------| x3
D|--5-5-5-5-5-5-5-5-5-5-5-5-5-5-5-5--5-5-5-5-5-5-5-5--3-3-3-3-3-3-3-3-3------|
A|--3-3-3-3-3-3-3-3-3-3-3-3-3-3-3-3--5-5-5-5-5-5-5-5--3-3-3-3-3-3-3-3-3------|
E|-----------------------------------3-3-3-3-3-3-3-3--1-1-1-1-1-1-1-1-1------|


[OUTRO]

E|-------------------------------------------------------------------------------------------|
B|-------------------------------------------------------------------------------------------|
G|--5-5-5-5-5-5-5-5-5-5-5-5-5-5-5-5---------------------------------------------------5------|
D|--5-5-5-5-5-5-5-5-5-5-5-5-5-5-5-5--5-5-5-5-5-5-5-5—-5-5-5-5-5-5-5-5-5-5-5-5-5-5-5---5------|
A|--3-3-3-3-3-3-3-3-3-3-3-3-3-3-3-3--5-5-5-5-5-5-5-5—-5-5-5-5-5-5-5-5-5-5-5-5-5-5-5---3------|
E|-----------------------------------3-3-3-3-3-3-3-3—-3-3-3-3-3-3-3-3-3-3-3-3-3-3-3----------|
PM----------------------------|


******************

|x Dead note
|PM Palm mute
All the small things
True care, truth brings
I'll take one lift
Your ride best trip

Always I know
You'll be at my show
Watching, waiting, commiserating

Say it ain't so,
I will not go,
Turn the lights off,
Carry me home

Na, na...

Late night, come home
Work sucks, I know
She left me roses by the stairs,
Surprises, let me know she cares

Say it ain't so,
I will not go,
Turn the lights off,
Carry me home

Na, na...

Say it ain't so,
I will not go,
Turn the lights off,
Carry me home

Keep your head still,
I'll be your thrill,
The night will go on,
My little windmill

Say it ain't so,
I will not go,
Turn the lights off,
Carry me home

Keep your head still,
I'll be your thrill,
The night will go on,
The night will go on,
My little windmill
Song info
All The Small Things
Blink 182
2001
  • Rock
  • Pop Rock
  • Punk
Alternative tracks
Similar songs
Everyday - Bon Jovi
1985 - Bowling for Soup
Exs And Ohs - Elle King
Dont Stop - Fleetwood Mac
Hold On Loosely - 38 Special

Hi! Hope you enjoy backing track experience.
If you want to help us in the development of the project, feel free to donate!