Down - Blink 182
00:00 / 00:00
Tabs and lyrics
Tunning: Standard (E A D G B e)
Blink 182 - Down
Tabbed by TJF (TJF@TJFweb.com)
for Electric Guitar

* Notes: First tab of "Down" from Blink 182's new self-titled album!

* Notes: For the 'Breaks after the chorus' parts, just play the same power
chord rooted on either the E string or A string. I just put the two
different variations in there for fun, but I'm sure that the intro
is rooted on the A string as you can tell the difference between the
A string and the E string.

* Notes: A lot of new Blink 182 songs consist mainly of piano / keyboard parts.
I would 'tab' these parts, but you can't exactly tab piano parts.
However, I've included some parts to play on guitar if you get bored
of playing power chords. Have fun!

* Notes: For more Blink 182 tabs and Japanese Punk Rock / Pop Guitar and Bass tabs,
please visit www.TJFweb.com


[Intro]

(Distorted):

e|--------------------------------|
B|--------------------------------|
G|-4-4-4-x-x-4-4-4-x-x-4-x--------|
D|-x-x-x-x-x-x-x-x-x-x-x-x--------|
A|-2-2-2-x-x-2-2-2-x-x-2-x--------|
E|--------------------------------| Repeat many times as necessary with VERSE A low in BG...


[Verse 1]

(Clean; light distortion)

e|------------------------------------------|
B|------------------------------------------|
G|------------------------------------------|
D|-9-9-9--9-9-9--9-9-9--6-6-6--8-8-8--------|
A|-x-x-x--x-x-x--x-x-x--x-x-x--x-x-x--------|
E|-7-7-7--7-7-7--7-7-7--4-4-4--6-6-6--------| Repeat as necessary with intro in background (Guitar 2)

End verse on

e|---------------------|
B|---------------------|
G|---------------------|
D|-9-------------------|
A|-x-------------------|
E|-7-------------------|


[Chorus]

(Heavy Distortion)

e|----------------------------------------------------------------------------------------------------------|
B|----------------------------------------------------------------------------------------------------------|
G|----------------------------------------------------------------------------------------------------------|
D|--6-6-6-6-6-6-6-6--8-8-8-8-8-8-8-8--9-9-9-9-9-9-9-9--4-4-4-4-4-4-4-4--6-6-6-6-6-6-6-6--8-8-8-8-8-8-8-8-9--|
A|--6-6-6-6-6-6-6-6--8-8-8-8-8-8-8-8--9-9-9-9-9-9-9-9--4-4-4-4-4-4-4-4--6-6-6-6-6-6-6-6--8-8-8-8-8-8-8-8-9--|
E|--4-4-4-4-4-4-4-4--6-6-6-6-6-6-6-6--7-7-7-7-7-7-7-7--2-2-2-2-2-2-2-2--4-4-4-4-4-4-4-4--6-6-6-6-6-6-6-6-7--|

*** Break after chorus is basically the intro played as:

e|----------------------------------|
B|----------------------------------|
G|------------------4-4-4-4-4-4-4-4-|
D|-9-9-9-9-9-9-9-9--x-x-x-x-x-x-x-x-|
A|-x-x-x-x-x-x-x-x--2-2-2-2-2-2-2-2-|
E|-7-7-7-7-7-7-7-7------------------|


[Verse 2]

(Clean with heavy EQ and effects)

e|---------------------------|
B|---------------------------|
G|---------------------------|
D|-6-6-6-8---8-8-9-----------|
A|-x-x-x-x---x-x-x-----------|
E|-4-4-4-6---6-6-7----------| Repeat as necessary


[Chorus]

(Heavy Distortion)

e|----------------------------------------------------------------------------------------------------------|
B|----------------------------------------------------------------------------------------------------------|
G|----------------------------------------------------------------------------------------------------------|
D|--6-6-6-6-6-6-6-6--8-8-8-8-8-8-8-8--9-9-9-9-9-9-9-9--4-4-4-4-4-4-4-4--6-6-6-6-6-6-6-6--8-8-8-8-8-8-8-8-9--|
A|--6-6-6-6-6-6-6-6--8-8-8-8-8-8-8-8--9-9-9-9-9-9-9-9--4-4-4-4-4-4-4-4--6-6-6-6-6-6-6-6--8-8-8-8-8-8-8-8-9--|
E|--4-4-4-4-4-4-4-4--6-6-6-6-6-6-6-6--7-7-7-7-7-7-7-7--2-2-2-2-2-2-2-2--4-4-4-4-4-4-4-4--6-6-6-6-6-6-6-6-7--|

Play around with this until fade out (Clean):

e|----------------------------------|
B|----------------------------------|
G|------------------4-4-4-4-4-4-4-4-|
D|-9-9-9-9-9-9-9-9--x-x-x-x-x-x-x-x-|
A|-x-x-x-x-x-x-x-x--2-2-2-2-2-2-2-2-|
E|-7-7-7-7-7-7-7-7------------------|

If you really want to play the Piano part, here it is:

e|--------------------------------------|
B|------12-------12---------12-------12-|
G|---11----11-11----11---11----11-11----|
D|-9-------------------9----------------|
A|--------------------------------------|
E|--------------------------------------|

(Repeat until fade out...)


Lyrics:

The drops of rain they fall all over
This awkward silence makes me crazy
The glow inside burns light upon her
I'll try to kiss you if you let me
... This can't be the end
Tidal waves they rip right through me
Tears from eyes worn cold and sad
Pick me up now, I need you so bad

Down down down down
Down down down down
It gets me so
Down down down down
Down down down down
It gets me so

Your vows of silence fall all over
The look in your eyes makes me crazy
I feel the darkness break upon her
I'll take you over if you let me
... You did this

Tidal waves they rip right through me
Tears from eyes worn cold and sad
Pick me up now, I need you so bad.

Down down down down
Down down down down
It gets me so
Down down down down
Down down down down
It gets me so
Down down down down
Down down down down

************************************

| x Dead note

************************************
Tunning: Standard (E A D G B e)
Artist: Blink 182
Song Title: Down
Album: Blink 182
Tuning: Standard, Capo 2nd fret, All notes relative to the capo

Intro
e---------------------------------
B---------------------------------
G---------x-x--------x-x-----x-x--
D--7--7-7-x-x-7--7-7-x-x-7-7-x-x--
A--0--0-0-x-x-0--0-0-x-x-0-0-x-x--
E--5--5-5-x-x-5--5-5-x-x-5-5-x-x--

Verse
e------------------------------------------------
B------------------------------------------------
G------------------------------------------------
D--7-7-7-7--7-7-7-7--7-7--4-4-4-4--6-6-6-6--6-6--
A--0-0-0-0--0-0-0-0--0-0--0-0-0-0--0-0-0-0--0-0--
E--5-5-5-5--5-5-5-5--5-5--2-2-2-2--4-4-4-4--4-4--

Chorus
e----------------------------------------------------------------
B----------------------------------------------------------------
G----------------------------------------------------------------
D--4--4-4-4-4-4--4-4-4-4-4-4-4-4--6--6-6-6-6-6--6-6-6-6-6-6-6-6--
A--4--4-4-4-4-4--4-4-4-4-4-4-4-4--6--6-6-6-6-6--6-6-6-6-6-6-6-6--
E--2--2-2-2-2-2--2-2-2-2-2-2-2-2--4--4-4-4-4-4--4-4-4-4-4-4-4-4--

e----------------------------------------------------------------
B----------------------------------------------------------------
G----------------------------------------------------------------
D--7--7-7-7-7-7--7-7-7-7-7-7-7-7--2--2-2-2-2-2--2-2-2-2-2-2-2-2--
A--7--7-7-7-7-7--7-7-7-7-7-7-7-7--2--2-2-2-2-2--2-2-2-2-2-2-2-2--
E--5--5-5-5-5-5--5-5-5-5-5-5-5-5--0--0-0-0-0-0--0-0-0-0-0-0-0-0--

e----------------------------------------------------------------
B----------------------------------------------------------------
G----------------------------------------------------------------
D--4--4-4-4-4-4--4-4-4-4-4-4-4-4--6--6-6-6-6-6--6-6-6-6-6-6-6-6--
A--4--4-4-4-4-4--4-4-4-4-4-4-4-4--6--6-6-6-6-6--6-6-6-6-6-6-6-6--
E--2--2-2-2-2-2--2-2-2-2-2-2-2-2--4--4-4-4-4-4--4-4-4-4-4-4-4-4--
Tunning: Nashville (E A D G B E)
Down
All guitars tuned down 1 and 1/2 step

This song i believe is one of the easyest song
on the CD, This song has only ONE guitar in it
How kick ass is that?

Guitar 1 (as opposed to another one???)
Intro
E|--------------------------------------------|
B|--------------------------------------------|
G|-7-7-7-x-x-7-7-x-x-7-7-7-x-7-7-7-x-7-7-7----|
D|-x-x-x-x-x-x-x-x-x-x-x-x-x-x-x-x-x-x-x-x----|
A|-5-5-5-x-x-5-5-x-x-5-5-5-x-5-5-5-x-5-5-5----| 8x
E|--------------------------------------------|

This represents ONE BAR, so if you play it 4 times
thats a full cycle, so play 2 cycles
Verse
E|---------------------------------------------|
B|---------------------------------------------|
G|-7-7-7-7-7-7-7-7-7-7--4-4-4-6-6-6-6-6-6-6----|
D|-0-0-0-0-0-0-0-0-0-0--0-0-0-0-0-0-0-0-0-0----|
A|-5-5-5-5-5-5-5-5-5-5--2-2-2-4-4-4-4-4-4-4----| 4x
E|---------------------------------------------|

Guitar 1 (piano arranged for guitar)
Its just one chord, when he whispers, "you did this"
Filler 1
E|---|
B|---|
G|-0-|
D|---|
A|---|
E|-3-|

Guitar 1
Pre-chours part 1
E|------------------------------------------------------|
B|------------------------------------------------------|
G|------------------------------------------------------|
D|--4-4-4--4-4--4-4-4--4----7-7-7-7-7---7-7-7-7-7-7-7---|
A|--2-2-2--2-2--2-2-2--2p0--4-4-4-4-4/5-5-5-5-5-5-5-5p0-|
E|------------------------------------------------------|

Guitar 1
Pre-Chours part 2
E|-----------------------------------------------|
B|-----------------------------------------------|
G|-----------------------------------------------|
D|--2-2-2-2-0-2-4-4-4-4-4-4---7-7-7-7-7-7-7------|
A|--0-0-0-0-0-0-2-2-2-2-2-2p0-4-4-4-4-4-4-4------|
E|-----------------------------------------------|

Guitar 1
Chours part 1
E|----------------------------------------------------------------|
B|----------------------------------------------------------------|
G|-14-14-14-14-14-14-12-12-12-12-11-11-11-11-11-12-12-12-12-12-12-|
D|--0--0--0--0--0--0--0--0--0--0--0--0--0--0--0--0--0--0--0--0--0-|
A|-12-12-12-12-12-12-10-10-10-10--9--9--9--9--9-10-10-10-10-10-10-| 2x
E|----------------------------------------------------------------|
Now repeat the intro then verse SHOW BELOW, NOT THE OTHER
ONE, the filler

Guitar 1
With fingers and i think a reverse gated reverb
Second Verse
E|---------------------------------|
B|---------------------------------|
G|-7-----4----6--------------------|
D|---------------------------------|
A|-5-----2----4--------------------|
E|---------------------------------|
*Let ring for a bar for the "7,5"

Now play the filler, then the pre-chours, then the chours
but play this riff in the backround until the song ends
Guitar 1
Filler 2
E|--------------10------------10-------|
B|------10-----------10-----------10---|
G|-7--------7-------------7------------|
D|-------------------------------------|
A|-------------------------------------|
E|-------------------------------------|

and done
Tunning: Standard (E A D G B e)
from Blink 182
Down
Words and Music by Travis Barker, Tom De Longe and Mark Hoppus
Moderately = 94bpm


Intro
|---------------------------------|---------------------------------|
|---------------------------------|---------------------------------|
|-4---4-4-x-x-4---4-4-x-x-4-4-x-x-|-4---4-4-x-x-4---4-4-x-x-4-4-x-x-|
|-x---x-x-x-x-x---x-x-x-x-x-x-x-x-|-x---x-x-x-x-x---x-x-x-x-x-x-x-x-|
|-2---2-2-x-x-2---2-2-x-x-2-2-x-x-|-2---2-2-x-x-2---2-2-x-x-2-2-x-x-|
|---------------------------------|---------------------------------|

Verse
|-x-x-x-x-----x-x-x-x-----x-x-----|-------------x-x-x-x-----x-x-----|
|-2-2-2-2-----2-2-2-2-----2-2-----|-------------2-2-2-2-----2-2-----|
|-4-4-4-4-----4-4-4-4-----4-4-----|-x-x-x-x-----3-3-3-3-----3-3-----|
|-x-x-x-x-----x-x-x-x-----x-x-----|-6-6-6-6-----x-x-x-x-----x-x-----|
|-2-2-2-2-----2-2-2-2-----2-2-----|-x-x-x-x-----1-1-1-1-----1-1-----|
|---------------------------------|-4-4-4-4-------------------------|

Fill ("This can't be the end.")
("You did this.")
|---------------------------------|
|---------------------------------|
|---------------------------------|
|---------------------------------|
|-2~~~~~~~~~~-~~~~--~~~~--~~-~~-~-|
|-0~~~~~~~~~~-~~~~--~~~~--~~-~~-~-|

Pre-Chorus
|---------------------------------|---------------------------------|
|---------------------------------|---------------------------------|
|---------------------------------|---------------------------------|
|---------------------------------|-4---4-------4-------4---4-4-4---|
|-6---6-6-----6---6-6-----6-6-6---|-1---1-------1-------1---1-1-1/2-|
|-4---4-4-----4---4-4-----4-4-4p2-|---------------------------------|

|---------------------------------|---------------------------------|
|---------------------------------|---------------------------------|
|---------------------------------|---------------------------------|
|-4---4-------4-------4---4-4-4---|---------------------------------|
|-2---2-------2-------2---2-2-2---|-4---4-------4-------4-----4-2-4-|
|-------------------------------2-|-2---2-------2-------2-----2-2-2-|

|---------------------------------|---------------------------------|
|---------------------------------|---------------------------------|
|---------------------------------|---------------------------------|
|---------------------------------|-4---4-4-----4-4---4-4---4---2---|
|-6---6-6-----6---6-6---6-6---6---|-1---1-1-----1-1---1-1---1---2---|
|-4---4-4-----4---4-4---4-4---4p2-|-----------------------------2---|

Chorus
|---------------------------------|---------------------------------|
|-x--x--x------x----x----x--x--x--|-x-x-x---------x-----x-----x-x-x-|
|-11-11-11-----11---11---11-11-11-|-9-9-9---------9-----9-----9-9-9-|
|-x--x--x------x----x----x--x--x--|-x-x-x---------x-----x-----x-x-x-|
|-9--9--9------9----9----9--9--9--|-7-7-7---------7-----7-----7-7-7-|
|---------------------------------|---------------------------------|

|---------------------------------|---------------------------------|
|-x--x-x--------x---x-x-x---x-x-x-|-x---x-x--------x--x-x-----x-x-x-|
|-8--8-8--------8---8-8-8---8-8-8-|-9---9-9--------9--9-9-----9-9-9-|
|-x--x-x--------x---x-x-x---x-x-x-|-x---x-x--------x--x-x-----x-x-x-|
|-6--6-6--------6---6-6-6---6-6-6-|-7---7-7--------7--7-7-----7-7-7-|
|---------------------------------|---------------------------------|

Verse 2 (reverse gated reverb)
|---------------------------------|---------------------------------|
|---------------------------------|---------------------------------|
|-4-------------------------------|---------------3-----------------|
|-x-------------------------------|-6-------------x-----------------|
|-2-------------------------------|-x-------------1-----------------|
|---------------------------------|-4-------------------------------|

Outro
|-------------7------------7------|
|-----7-----------7------------7--|
|-4-------4-----------4-----------|
|---------------------------------|
|---------------------------------|
|---------------------------------|


Intro x4
Verse x4
Fill
Pre-Chorus
Chorus x2
Intro
Verse 2 x4
Fill
Pre Chorus
Chorus x2
Outro x16
Tunning: Standard (E A D G B e)
Blink 182 - Down

Artist's: Blink 182
Song: Down
Album: Blink 182

X = Take Your Finger Off Then On Again

Intro
e------------------|
B------------------|
G------------------| (For The First 4 Times You Play The Intro Make Sure
D-9999—x-9999-x-99-| x8 The Switch Is Up, Then When The Drums Come In
A-9999—x-9999-x-99-| Switch It Down)
E-7777—x-7777-x-77-|

Verse
e-------------------------------------|
B-------------------------------------|
G-------------------------------------|
D-9999—x-9999-x-99-x-6666—x-8888-x-88-| x4
A-9999—x-9999-x-99—x-6666-x-8888-x-88-|
E-7777—x-7777-x-77-x-4444-x-6666-x-66-|

Pre-Chorus
e-----|
B-----|
G-----|
D—-2--|
A--2--|
E--0--|

Chorus
e---------------------------------------------------------------------------|
B---------------------------------------------------------------------------|
G---------------------------------------------------------------------------|
D-6666-x-6666-x-66-x-8888-x-8888-x-88-x-9999-x-9999-x-99-x-4444-x-4444-x-44-|
A-6666-x-6666-x-66-x-8888-x-8888-x-88-x-9999-x-9999-x-99-x-4444-x-4444-x-44-|
E-4444-x-4444-x-44-x-6666-x-6666-x-66-x-7777-x-7777-x-77-x-2222-x-2222-x-22-|

-------------------------------------|
-------------------------------------|
-------------------------------------|
-6666-x-6666-x-66-x-8888-x-8888-x-88-|
-6666-x-6666-x-66-x-8888-x-8888-x-88-|
-4444-x-4444-x-44-x-6666-x-6666-x-66-|

Play When Mark Start's Sing 'Down, Down, Down, Down'
e--------------------------------------------------------|
B--------------------------------------------------------|
G-4444-x-4444-x-44-x-------------------------------------|
D-4444-x-4444-x-44-x-2222-x-2222-x-22-x-6666-x-6666-x-66-|
A-2222-x-2222-x-22-x-2222-x-2222-x-22-x-6666-x-6666-x-66-|
E--------------------0000-x-0000-x-00-x-4444-x-4444-x-44-|

------------------|
------------------|
------------------|
-2222-x-2222-x-22-| x2
-2222-x-2222-x-22-|
-0000-x-0000-x-00-|

Pre-Verse
e------------------|
B------------------|
G------------------|
D-9999—x-9999-x-99-| x2 (Make Sure Switch Is Up)
A-9999—x-9999-x-99-|
E-7777—x-7777-x-77-|

Verse
e-------------------------------------|
B-------------------------------------|
G-------------------------------------|
D-9999—x-9999-x-99-x-6666—x-8888-x-88-| x4
A-9999—x-9999-x-99—x-6666-x-8888-x-88-|
E-7777—x-7777-x-77-x-4444-x-6666-x-66-|

Pre-Chorus
e-----|
B-----|
G-----|
D—-2--|
A--2--|
E--0--|

Chorus
e---------------------------------------------------------------------------|
B---------------------------------------------------------------------------|
G---------------------------------------------------------------------------|
D-6666-x-6666-x-66-x-8888-x-8888-x-88-x-9999-x-9999-x-99-x-4444-x-4444-x-44-|
A-6666-x-6666-x-66-x-8888-x-8888-x-88-x-9999-x-9999-x-99-x-4444-x-4444-x-44-|
E-4444-x-4444-x-44-x-6666-x-6666-x-66-x-7777-x-7777-x-77-x-2222-x-2222-x-22-|

-------------------------------------|
-------------------------------------|
-------------------------------------|
-6666-x-6666-x-66-x-8888-x-8888-x-88-|
-6666-x-6666-x-66-x-8888-x-8888-x-88-|
-4444-x-4444-x-44-x-6666-x-6666-x-66-|

Play When Mark Start's Sing 'Down, Down, Down, Down'
e--------------------------------------------------------|
B--------------------------------------------------------|
G-4444-x-4444-x-44-x-------------------------------------|
D-4444-x-4444-x-44-x-2222-x-2222-x-22-x-6666-x-6666-x-66-|
A-2222-x-2222-x-22-x-2222-x-2222-x-22-x-6666-x-6666-x-66-|
E--------------------0000-x-0000-x-00-x-4444-x-4444-x-44-|

------------------|
------------------|
------------------|
-2222-x-2222-x-22-| x2
-2222-x-2222-x-22-|
-0000-x-0000-x-00-|

Outro
e------------------|
B------12----12----|
G---11----11----11-|
D-9----------------| x16
A------------------|
E------------------|
Tunning: Standard (E A D G B e)
DOWN
As recorded by Blink 182
(From the 2003 Album BLINK-182)

Words and Music by Tom DeLonge, Mark Hoppus, and Travis Barker
Transcribed by KiCk@$$Rocker

Gtr I (E A D G B E) - 'Distortion'
Gtr II (E A D G B E) - 'Distortion'
Gtr III (E A D G B E) - 'Clean'
Gtr IV (E A D G B E) - 'Piano'


Guitar 1,2,3 Capo II

Intro
Q=196
A
4/4
Gtr I
Q E E E E Q E E E E E E E E Q E E E E Q E E E E E E E E
||----------------|-----------------|---------------|-------------------||
||o---------------|-----------------|---------------|------------------o||
||----------------|-----------------|---------------|-------------------||
||--7--7-7-x-x-7--|-7-7-x-x-7-7-x-x-|-7--7-7-x-x-7--|-7-7-x-x-7-7-x-x---||
||o-x--x-x-x-x-x--|-x-x-x-x-x-x-x-x-|-x--x-x-x-x-x--|-x-x-x-x-x-x-x-x--o||
||--5--5-5-x-x-5--|-5-5-x-x-5-5-x-x-|-5--5-5-x-x-5--|-5-5-x-x-5-5-x-x---||


A
Gtrs I, II
Q E E E E Q E E E E E E E E Q E E E E Q E E E E E E E E
||----------------|-----------------|---------------|------------------||
||o---------------|-----------------|---------------|-----------------o||
||----------------|-----------------|---------------|------------------||
||--7--7-7-x-x-7--|-7-7-x-x-7-7-x-x-|-7--7-7-x-x-7--|-7-7-x-x-7-7-x-x--||
||o-x--x-x-x-x-x--|-x-x-x-x-x-x-x-x-|-x--x-x-x-x-x--|-x-x-x-x-x-x-x-x-o||
||--5--5-5-x-x-5--|-5-5-x-x-5-5-x-x-|-5--5-5-x-x-5--|-5-5-x-x-5-5-x-x--||


Verse
A F#m C
Gtr III
E E E E +Q E E E Q. E Q. E E E E +Q E E E Q. E Q. 4x
||-------------------|---------------|------------------|----------------||
||o------------------|---------------|------------------|---------------o||
||-------------------|---------------|------------------|----------------||
||--7-7-7-7-(7)--7-7-|-7-7----7-7----|-4-4-4-4-(4)--6-6-|-6-6----6-6-----||
||o-0-0-0-0-(0)--0-0-|-0-0----0-0----|-0-0-0-0-(0)--0-0-|-0-0----0-0----o||
||--5-5-5-5-(5)--5-5-|-5-5----5-5----|-2-2-2-2-(2)--4-4-|-4-4----4-4-----||


Pre-Chorus
$
E5 F#5
Gtr IV Gtrs I, II
W +W Q. E Q Q +E E Q E E E E
|----------|------------||--------------|-------------------|
|----------|------------||--------------|-------------------|
|----------|------------||--------------|-------------------|
|----------|------------||-4----4-4--4--|-(4)-4-4--4-4-4-4--|
|-2--------|-(2)--------||-4----4-4--4--|-(4)-4-4--4-4-4-4--|
|-0--------|-(0)--------||-2----2-2--2--|-(2)-2-2--2-2-2-2--|


E/Ab A5
Q. E Q Q +E E Q E E E E Q. E Q Q +E E Q E E E E
|--------------|------------------|--------------|-------------------|
|--------------|------------------|--------------|-------------------|
|--------------|------------------|--------------|-------------------|
|-6----6-6--6--|-(6)-6-6--6-6-6-6-|-7----7-7--7--|-(7)-7-7--7-7-7-7--|
|-7----7-7--7--|-(7)-7-7--7-7-7-7-|-7----7-7--7--|-(7)-7-7--7-7-7-7--|
|-4----4-4--4--|-(4)-4-4--4-4-4-4-|-5----5-5--5--|-(5)-5-5--5-5-5-5--|


E5 F#5
Q. E Q Q +E E Q E E E E Q. E Q Q +E E Q E E E E
|--------------|------------------|--------------|-------------------|
|--------------|------------------|--------------|-------------------|
|--------------|------------------|--------------|-------------------|
|-2----2-2--2--|-(2)-2-2--2-2-2-2-|-4----4-4--4--|-(4)-4-4--4-4-4-4--|
|-2----2-2--2--|-(2)-2-2--2-2-2-2-|-4----4-4--4--|-(4)-4-4--4-4-4-4--|
|-0----0-0--0--|-(0)-0-0--0-0-0-0-|-2----2-2--2--|-(2)-2-2--2-2-2-2--|


E/Ab
Q. E Q Q +E E Q E E E E
|--------------|------------------||
|--------------|------------------||
|--------------|------------------||
|-6----6-6--6--|-(6)-6-6--6-6-6-6-||
|-7----7-7--7--|-(7)-7-7--7-7-7-7-||
|-4----4-4--4--|-(4)-4-4--4-4-4-4-||


Chorus
A
Gtr III
Q. E E E Q +E E E E E E E E
||----------------|-------------------|
||o---------------|-------------------|
||----------------|-------------------|
||--7----7-7-7-7--|-(7)-7-7-7-7-7-7-7-|
||o-0----0-0-0-0--|-(0)-0-0-0-0-0-0-0-|
||--5----5-5-5-5--|-(5)-5-5-5-5-5-5-5-|


D5
Q. E E E Q +E E E E E E E E
|--------------------|---------------------------|
|--------------------|---------------------------|
|--------------------|---------------------------|
|-12----12-12-12-12--|-(12)-12-12-12-12-12-12-12-|
|--0-----0--0--0--0--|--(0)--0--0--0--0--0--0--0-|
|-10----10-10-10-10--|-(10)-10-10-10-10-10-10-10-|


A/C#
Q. E E E Q +E E E E E E E E
|--------------------|---------------------------|
|--------------------|---------------------------|
|--------------------|---------------------------|
|-11----11-11-11-11--|-(11)-11-11-11-11-11-11-11-|
|--0-----0--0--0--0--|--(0)--0--0--0--0--0--0--0-|
|--9-----9--9--9--9--|--(9)--9--9--9--9--9--9--9-|


To Coda
D5
Q. E E E Q +E E E E E E E E
|--------------------|-----------------------------||
|--------------------|----------------------------o||
|--------------------|-----------------------------||
|-12----12-12-12-12--|-(12)-12-12-12-12-12-12-12---||
|--0-----0--0--0--0--|--(0)--0--0--0--0--0--0--0--o||
|-10----10-10-10-10--|-(10)-10-10-10-10-10-10-10---||


Interlude
A
Gtr I
Q E E E E Q E E E E E E E E Q E E E E Q E E E E E E E E
|---------------|-----------------|---------------|------------------|
|---------------|-----------------|---------------|------------------|
|---------------|-----------------|---------------|------------------|
|-7--7-7-x-x-7--|-7-7-x-x-7-7-x-x-|-7--7-7-x-x-7--|-7-7-x-x-7-7-x-x--|
|-x--x-x-x-x-x--|-x-x-x-x-x-x-x-x-|-x--x-x-x-x-x--|-x-x-x-x-x-x-x-x--|
|-5--5-5-x-x-5--|-5-5-x-x-5-5-x-x-|-5--5-5-x-x-5--|-5-5-x-x-5-5-x-x--|


Verse
D.S. al Coda
B G# Bb
Gtr IV
>
| W +W W W 4x
||---------------|----------------|--------------|-----------------||
||o--------------|----------------|--------------|----------------o||
||---------------|----------------|--------------|-----------------||
||--7------------|-(7)------------|--------------|-----------------||
||o-x------------|-(x)------------|--------------|----------------o||
||--5------------|-(5)------------|--------------|-----------------||


Duration Legend
---------------
W - whole; H - half; Q - quarter; E - 8th; S - 16th; T - 32nd; X - 64th; a - acciaccatura
+ - note tied to previous; . - note dotted; .. - note double dotted
Uncapitalized letters represent notes that are staccato (1/2 duration)
Irregular groupings are notated above the duration line
Duration letters will always appear directly above the note/fret number it represents the
duration for. Duration letters with no fret number below them represent rests. Multi-
bar rests are notated in the form Wxn, where n is the number of bars to rest for. Low
melody durations appear below the staff

Tablature Legend
----------------
h - hammer-on
p - pull-off
b - bend
pb - pre-bend
r - bend release (if no number after the r, then release immediately)
/\ - slide into or out of (from/to "nowhere")
s - legato slide
S - shift slide
- natural harmonic
[n] - artificial harmonic
n(n) - tapped harmonic
~ - vibrato
tr - trill
T - tap
TP - trem. picking
PM - palm muting
\n/ - tremolo bar dip; n = amount to dip
\n - tremolo bar down
n/ - tremolo bar up
/n\ - tremolo bar inverted dip
= - hold bend; also acts as connecting device for hammers/pulls
- volume swell (louder/softer)
x - on rhythm slash represents muted slash
o - on rhythm slash represents single note slash

Misc Legend
-----------
| - bar
|| - double bar
||o - repeat start
o|| - repeat end
*| - double bar (ending)
: - bar (freetime)
$ - Segno
& - Coda
Tempo markers - = BPM(8/16=s8/s16), where s8 = swing 8ths, s16 = swing 16ths
Tunning: Standard (E A D G B e)
Hey! This is tab for the outro of the song Down by Blink 182 (li version from Teen
Awards)

Tuning: Standart

During the outro Travis is playing drum part of Feeling This and Mark is playing intro
Always. Here it is:

G:-4-4-4-4-4-4-4-4-6-6-6-6-6-6-6-6-8-8-8-8-8-8-8-8-4-4-4-4-4-4-4-4-|
D:-4-4-4-4-4-4-4-4-4-4-4-4-4-4-4-4-6-6-6-6-6-6-6-6-2-2-2-2-2-2-2-2-|
A:-----------------------------------------------------------------|
E:-----------------------------------------------------------------|

And this is what Tom is playing:

E:-----------------------------------------------------------|
B:---11---11--------11---11--------11---11--------11---11----|
G:-9----9----9~---9----9----9~---9----9----9~---9----9----9~-|
D:-----------------------------------------------------------|
A:-----------------------------------------------------------|
E:-----------------------------------------------------------|

E:-----------------------------------------------------------|
B:---11---11--------11---11--------11---11--------------11---|
G:-9----9----9~---9----9----9~---9----9----9~---9--9--9----9~|
D:-----------------------------------------------------------|
A:-----------------------------------------------------------|
E:-----------------------------------------------------------|

E:-------------------------------------------------------------------------|
B:-------------------------------------------------------------------------|
G:-9--8--9--11--9~---9--8--9--8--8h9~---9--8--9--11--9~---9--8--9--8--8h9~-|
D:-------------------------------------------------------------------------|
A:-------------------------------------------------------------------------|
E:-------------------------------------------------------------------------|

E:-------------------------------------------------------------------------|
B:---------11~--------------11~--------------11~---------------------------|
G:-9--8--9-----9~---9--8--9-----9~---9--8--9-----9~-----8h9~----------8h9~-|
D:-------------------------------------------------------------------------|
A:-------------------------------------------------------------------------|
E:-------------------------------------------------------------------------|

That's it, it's very easy. Enjoy!
Song info
Down
Blink 182
2001
  • Rock
  • Alternative Rock
  • Indie Rock
Alternative tracks
Similar songs
Swamp Thing - The Chameleons
Outshined - Soundgarden
This Is It - Ryan Adams
The Ship Song - Nick Cave
Teddy Picker - Arctic Monkeys

Hi! Hope you enjoy backing track experience.
If you want to help us in the development of the project, feel free to donate!