Fire Water Burn - Bloodhound Gang
00:00 / 00:00
Tabs and lyrics
Tunning: Standard (E A D G B e)
Bloodhound Gang - Fire Water Burn
Tabbed by: DarkAgeHero
Email: blissfreak84@hotmail.com

\=strum down
/=strum up

[Intro]
G Em
\ \ / \ / \ \ \ / \ / \
e|--3--3-3--3-3-3-0--0-0--0-0-0------------------:|
B|--0--0-0--0-0-0-0--0-0--0-0-0------------------:|
G|--0--0-0--0-0-0-0--0-0--0-0-0------------------:|
D|--0--0-0--0-0-0-2--2-2--2-2-2------------------:|
A|--2--2-2--2-2-2-2--2-2--2-2-2------------------:|
E|--3--3-3--3-3-3-0--0-0--0-0-0------------------:|

[Main Riff]
G5 E5
e|-----------------------------------------------:|
B|-----------------------------------------------:|
G|-----------------------------------------------:|
D|-5-5-5-5-5-5-5-5-2-2-2-2-2-2-------------------:|
A|-5-5-5-5-5-5-5-5-2-2-2-2-2-2-------------------:|
E|-3-3-3-3-3-3-3-3-0-0-0-0-0-0-------------------:|

[Chorus]
G5 E5
e|-----------------------------------------------:|
B|-----------------------------------------------:|
G|-----------------------------------------------:|
D|-5-5-5-5-5-5-5-5-2-2-2-2-2-2-------------------:|
A|-5-5-5-5-5-5-5-5-2-2-2-2-2-2-------------------:|
E|-3-3-3-3-3-3-3-3-0-0-0-0-0-0-------------------:|
The roof... fire.... x3

G5 E5
e|-----------------------------------------------|
B|-----------------------------------------------|
G|-7-7-7-7-7-7-7-7-5-5-5-5-5---5-5-5-5-5-----5---|
D|-7-7-7-7-7-7-7-7-5-5-5-5-5---5-5-5-5-5-----5---|
A|-5-5-5-5-5-5-5-5-3-3-3-3-3---3-3-3-3-3-----3---|
E|-----------------------------------------------| Back to main



************************************

\ strum down
/ strum up

************************************
Tunning: Standard (E A D G B e)
Tuning is standard

Intro (Clean)
G Em
|-3--3-3--3-3-3-0--0-0--0-0-0-|
|-0--0-0--0-0-0-0--0-0--0-0-0-|
|-0--0-0--0-0-0-0--0-0--0-0-0-|
|-0--0-0--0-0-0-2--2-2--2-2-2-|
|-2--2-2--2-2-2-2--2-2--2-2-2-|
|-3--3-3--3-3-3-3--0-0--0-0-0-|

Repeat that 4 more times

D C
|-2--2-2--2-2-2-0--0-0--0-0-0-0-|
|-3--3-3--3-3-3-1--1-1--1-1-1-1-|
|-2--2-2--2-2-2-0--0-0--0-0-0-0-|
|-0--0-0--0-0-0-2--2-2--2-2-2-2-|
|---------------3--3-3--3-3-3-3-|
|---------------0--0-0--0-0-0-0-|

Intro to Verse
(Distorted) x2
|---------------------------------|
|---------------------------------|
|-------------4-4-------------2-2-|
|-5-5-5-5-5-5-4-4-2-2-2-2-2-2-2-2-|
|-5-5-5-5-5-5-2-2-2-2-2-2-2-2-0-0-|
|-3-3-3-3-3-3-----0-0-0-0-0-0-----|

End on (Not included in Chorus)
|---------------------|
|---------------------|
|-------------4-4-----|
|-5-5-5-5-5-5-4-4-2---|
|-5-5-5-5-5-5-2-2-2---|
|-3-3-3-3-3-3-----0---|

Verse
(Clean)
G Em
|-3-3-3-3-3-3-3-3-0-0-0-0-0-0-0-0-|
|-0-0-0-0-0-0-0-0-0-0-0-0-0-0-0-0-|
|-0-0-0-0-0-0-0-0-0-0-0-0-0-0-0-0-|
|-0-0-0-0-0-0-0-0-2-2-2-2-2-2-2-2-|
|-2-2-2-2-2-2-2-2-2-2-2-2-2-2-2-2-|
|-3-3-3-3-3-3-3-3-0-0-0-0-0-0-0-0-|

Repeat 2 more times

C D
|-0-0-0-0-0-0-0-0-2-2-2-2-2-2-2-2-|
|-1-1-1-1-1-1-1-1-3-3-3-3-3-3-3-3-|
|-0-0-0-0-0-0-0-0-2-2-2-2-2-2-2-2-|
|-2-2-2-2-2-2-2-2-0-0-0-0-0-0-0-0-|
|-3-3-3-3-3-3-3-3-----------------|
|-0-0-0-0-0-0-0-0-----------------|

(Distorted)
|---------------------------------|
|---------------------------------|
|---------------------------------|
|-5-5-5-5-5-5-5-5-2-2-2-2-2-2-2-2-|
|-5-5-5-5-5-5-5-5-2-2-2-2-2-2-2-2-|
|-3-3-3-3-3-3-3-3-0-0-0-0-0-0-0-0-|

Repeat 2 more times

(Distorted)
|-----------------|
|-----------------|
|-----------------|
|-5-5-5-5-7-7-7-7-|
|-5-5-5-5-7-7-7-7-|
|-3-3-3-3-5-5-5-5-|

Chorus (Same as Intro to Verse but played 3x)

Riff 2 of chorus
|------------------------------------|
|------------------------------------|
|-7-7-7-7-7-7-7-7-5-5-5-5-5-5-5-5--5-|
|-7-7-7-7-7-7-7-7-5-5-5-5-5-5-5-5--5-|
|-5-5-5-5-5-5-5-5-3-3-3-3-3-3-3-3--3-|
|------------------------------------|

Play Intro To Verse (whole thing)

Verse 2
(Distorted) x3
|---------------------------------|
|---------------------------------|
|---------------------------------|
|-5-5-5-5-5-5-5-5-2-2-2-2-2-2-2-2-|
|-5-5-5-5-5-5-5-5-2-2-2-2-2-2-2-2-|
|-3-3-3-3-3-3-3-3-0-0-0-0-0-0-0-0-|

End on
|-------|
|-------|
|-------|
|-5--2--|
|-5--2--|
|-3--0--|

x3
|---------------------------------|
|---------------------------------|
|---------------------------------|
|-5-5-5-5-5-5-5-5-2-2-2-2-2-2-2-2-|
|-5-5-5-5-5-5-5-5-2-2-2-2-2-2-2-2-|
|-3-3-3-3-3-3-3-3-0-0-0-0-0-0-0-0-|

End on
|-----------------|
|-----------------|
|-----------------|
|-5-5-5-5-7-7-7-7-|
|-5-5-5-5-7-7-7-7-|
|-3-3-3-3-5-5-5-5-|

Chorus Riffs

Intro to Verse riff

Oh man,the long outro

Play The Clean G,Em chords riff x4

Play the distorted Intro to Verse (The part thats included in chorus only
x12 or x14 (depending on where it fades completely)









Song info
Fire Water Burn
Bloodhound Gang
2001
  • Rock
  • Alternative Rock
  • Punk
Similar songs
Lucky Man - Verve
No More Heroes - The Stranglers
Ill Stick Around - Foo Fighters
I Alone - Live

Hi! Hope you enjoy backing track experience.
If you want to help us in the development of the project, feel free to donate!