Bad Medicine - Bon Jovi
00:00 / 00:00
Tabs and lyrics
Tunning: Nashville (E A D G B E)
BAD MEDICINE- BON JOVI
Tab By:Ertunc Kocakoglu (Mr.Sambo)

Keyboard Bit:

E----0-0-0-0-0-0-0-0--0-0-0-0-0-0-0-0--0-0-0-0-0-0-0-0--0-0-0-0-0-0-0-0--
B----5-5-5-5-5-5-5-5--3-3-3-3-3-3-3-3--2-2-2-2-2-2-2-2--3-3-3-3-3-3-3-3--



Intro:

E----------0--(0)-
B----------0--(0)-
G----------------- Repeat Twice
D-------2---------
A-------2---------
E--2^2--0---------



Main Riff:

|---------------------------------------------------------------|
|---------------------------------------------------------------|
|---------------------------------------------------------------|
|-------2----------2---7-------2-----7---7--7---7----------2--2-|
|-------2----------2---7-------2-----7---7--7---7----------2--2-|
|--2^2--0---2^2----0---5--2^2--0-----5---5--5---5--0--2^2--0--0-|



E--------------------------------------------------------------------------------
B--------------------------------------------------------------------------------
G---4--4--------4--4--4--4----4----------------------4--4--------4--4--4--4------
D---2--2--0-----0--2--5--2----2--0-------------------2--2--0-----0--2--5--2------
A------------2----------------------2-------------------------2------------------
E--------------------------------------3\\5--5--3--------------------------------



E--------------------------------------------------
B--------------------------------------------------
G---4--4--------4--4--4--4----4--------------------
D---2--2--0-----0--2--5--2----2--0-----------------
A------------2----------------------2--------------
E--------------------------------------3\\5--5--3--

E--------------------------------------------|
B--------------------------------------------|
G--------------------------------------------|
D---2--------2--2-----2-2--------5\\7--7--5--|
A---0--------0--0-----0-0--------------------|
E------3--0--------3-------3--0--3\\5--5--3--|


E|------------------------------------------------|
B|------------------------------------------------|
G|-4--4--------4--4--4--4----4--------------------|
D|-2--2--0-----0--2--5--2----2--0-----5\\7--7--5--|
A|----------2----------------------2--------------|
E|------------------------------------3\\5--5--3--|



E-----------------------------------
B-----------------------------------
G-----------------------------------
D--4--4--------4--4----4----4----4--
A--2--2--0-----0--2----2----2----2--
E-----------2-----------------------
Tunning: Nashville (E A D G B E)
This is what i have of "Bad Medicine" by Bon Jovi. I know it's not 100% correct, but
what I came up with. You going 2 have to figure out the timing. I have the words to it
the tab it goes to.

Tuning-- E A D G B E

INTRO

E|-------0|-----|----------------------------|
B|-------0|-----|----------------------------|
G|--------|-----|----------------------------|
D|--------|-----|----------------------------|
A|5-4-2---|5-4-2|2--2--2--2--2--2---7---5-4-2|
E|3-2-0---|3-2-0|0--0--0--0--0--0---5---3-2-0|

Your love is like bad medicine.

E|-----------------------------|-------|
B|-----------------------------|-------|
G|-----------------------------|-------|
D|-----------------------------|-------|
A|7---5--------7---5---4--3----|2---4-5|
E|5---3--------5---3---2--1----|0---2-3|

Bad medicine is what I need. Woo o o

E|--------------------------------|
B|--------------------------------|
G|--------------------------------|
D|--------------------------------|
A|2-----2--2---2----2-2--7---5-4-2|
E|0-----0--0---0-0--0-0--5---3-2-0|

Shake it up just like bad medicine.

E|--------------------------------------------|
B|--------------------------------------------|
G|--------------------------------------------|
D|--------------------------------------------|
A|7------------5-----------------7----5---4--3|
E|5------------3-----------------5----3---2--1|

There ain't no doctor that can cure my disease.

E|----------------------------|---------------|
B|----------------------------|---------------|
G|----------------------------|---------------|
D|------------3-2--3-2-1------|------------3-2|
A|2-3-1-3-0-3------------4-5-3|2-3-1-3-0-3----|
E|----------------------------|---------------|

Bad medicine.
-----------------------------------------------------------------------

E|------------------------------------------------------|
B|------------------------------------------------------|
G|------------------------------------------------------|
D|----------------------3--2--3--2-1--------------------|
A|2--3-----1--3--0-3----------------------4-------5----3|
E|------------------------------------------------------|

I ain't got a fever, got a permenant disease. And it'll

E|---------------------------------------------------|
B|---------------------------------------------------|
G|---------------------------------------------------|
D|---------------------------3-2----------3-2-1------|
A|2--3-----1--3--0-3----------------------------4-5-3|
E|---------------------------------------------------|

take more than a doctor to prescribe a remedy.

E|----------------------------------------------|
B|----------------------------------------------|
G|----------------------------------------------|
D|----------3-2-----2-------------------3--2---2|
A|--2-3-1-3------------2--3---1----3------------|
E|----------------------------------------------|

I got lots of money but it isn't what i need.

E|-------------------------------------------------------------|
B|-------------------------------------------------------------|
G|-------------------------------------------------------------|
D|------------------------3-------2----------3----2--1---------|
A|2--3---1----3----0---3---------------------------------4--5-3|
E|-------------------------------------------------------------|

Gonna take more than a shot to get this poison out of me.

E|--------------------------------------------|
B|--------------------------------------------|
G|--------------------------------------------|
D|--------------------------------------------|
A|----2--2---2---2----2---1----3----3--3-3-3-2|
E|--------------------------------------------|

And I got all the symptoms count 'em 1 2 3.

E|------------|
B|------------|
G|------------|
D|------------|
A|2------4---5|
E|0------2---3|

First you need. That's what you get for falling in love.

E|------------|
B|------------|
G|------------|
D|------------|
A|5-----4----2|
E|3-----2----0|

Then you bleed. You get a little but it's never enough.

E|-----------|
B|-----------|
G|-----------|
D|-----------|
A|4---5-----7|
E|2---3-----5|

On your knees. That's what you get for falling in love.

E|------------------------|--------------------------|
B|------------------------|--------------------------|
G|------------------------|--------------------------|
D|5-----------------------|3-------------------------|
A|3-----------------------|1-------------------------|
E|------------------------|--------------------------|

Now this boys addicted cause your kiss is the drug.

E|-------|-------------------------------|
B|-------|-------------------------------|
G|-------|-------------------------------|
D|-------|-------------------------------|
A|2---4-5|----2--2--2--2--2--2-7---5-4--2|
E|0---2-3|----0--0--0--0--0--0-5---3-2--0|

Woo o o. Your love is like bad medicine.

E|-----------------------------|-------|
B|-----------------------------|-------|
G|-----------------------------|-------|
D|-----------------------------|-------|
A|7---5--------7---5---4--3----|2---4-5|
E|5---3--------5---3---2--1----|0---2-3|

Bad medicine is what I need. Woo o o

E|--------------------------------|
B|--------------------------------|
G|--------------------------------|
D|--------------------------------|
A|2-----2--2---2----2-2--7---5-4-2|
E|0-----0--0---0-0--0-0--5---3-2-0|

Shake it up just like bad medicine.

E|--------------------------------------------|
B|--------------------------------------------|
G|--------------------------------------------|
D|--------------------------------------------|
A|7------------5-----------------7----5---4--3|
E|5------------3-----------------5----3---2--1|

There ain't no doctor that can cure my disease.

E|-----------------------------|------|
B|-----------------------------|------|
G|-----------------------------|----5b|
D|x-x-5-x-5-5-x-x-5-x-5-5-x-x-5|------|
A|x-x-3-x-3-3-x-x-3-x-3-3-x-x-3|3/5---|
E|-----------------------------|------|

REPEAT EVERYTHING ON THE BOTTOM OF THE DOTTED LINE TWICE

E|-----------------------------|------|
B|-----------------------------|------|
G|-----------------------------|----5b|
D|x-x-5-x-5-5-x-x-5-x-5-5-x-x-5|------|
A|x-x-3-x-3-3-x-x-3-x-3-3-x-x-3|3/5---|
E|-----------------------------|------|

THEN PLAY SOLO...I HAVE NO CLUE HOW TO PLAY IT.

I need a respirator cause i'm running out of breath.
Your an all night generator wrapped in stockings and a dress.

E|---------------------------|--------------------------|
B|---------------------------|--------------------------|
G|---------------------------|--------------------------|
D|---------------------------|--------------------------|
A|1-----1---1----1----1-1-1-1|-1---1----1----1---1-1-1-1|
E|---------------------------|--------------------------|

When you find your medicine you take what you can get.

Cause if there's something better baby well they havn't found it yet.

E|-------|-------------------------------|
B|-------|-------------------------------|
G|-------|-------------------------------|
D|-------|-------------------------------|
A|2---4-5|----2--2--2--2--2--2-7---5-4--2|
E|0---2-3|----0--0--0--0--0--0-5---3-2--0|

Woo o o. Your love is like bad medicine.

E|-----------------------------|-------|
B|-----------------------------|-------|
G|-----------------------------|-------|
D|-----------------------------|-------|
A|7---5--------7---5---4--3----|2---4-5|
E|5---3--------5---3---2--1----|0---2-3|

Bad medicine is what I need. Woo o o

E|--------------------------------|
B|--------------------------------|
G|--------------------------------|
D|--------------------------------|
A|2-----2--2---2----2-2--7---5-4-2|
E|0-----0--0---0-0--0-0--5---3-2-0|

Shake it up just like bad medicine.

E|--------------------------------------------|
B|--------------------------------------------|
G|--------------------------------------------|
D|--------------------------------------------|
A|7------------5-----------------7----5---4--3|
E|5------------3-----------------5----3---2--1|

There ain't no doctor that can cure my disease.
Tunning: Standard (E A D G B e)
BAD MEDICINE - Bon Jovi
Tabbed by: ironmanben
Email: bentrooper@gmail.com

[intro]
e|-----------------|
B|-5~------------5-|
G|-4~------------4-|
D|-----------------|
A|-----------------|
E|--------3-2-0----|


e|---------0-------------------0-0-0--------------------0--------------------|
B|---------0-------------------0-0-0--------------------0--------------------|
G|-------------------------------------2--2-2-2-4----------------------------|
D|--------------------7--5-4---------0-2--2-2-2-4-5-4-----------5-4-2--2-2-2-|
A|--------------------7--5-4---------0-0--0-0-0---5-4-----------5-4-2--2-2-2-|
E|-3-2-0-----0-0-3-0--5--3-2-0--------------------3-2-0---3-2-0--------------|

e|----------0--0--------------------0-------|
B|----------0--0--------------------0-------|
G|-----------------2--2-2-2-4---------------|
D|-7--5-4--------0-2--2-2-2-4-5-4-----------|
A|-7--5-4--------0-0--0-0-0---5-4-----------|
E|-5--3-2-0-------------------3-2-0---0-0-0-|

[verse intro]
e|------------------------------------------------|
B|------------------------------------------------|
G|---4-------4-0-4--4---------------4-------4-0-4-|
D|---2-0---0-2-0-2--2-0------2------2-0---0-2-0-2-|
A|-------2--------------2-0h2-----------2---------|
E|-0---------------------------3--0---------------|

[verse]
x2 x1
e|-------------------------------|----------------------------|
B|-------------------------------|----------------------------|
G|---4-------4-0-4--4------------|----2----0-2-----2----0-2-0-|
D|---2-0---0-2-0-2--2-0------2---|-2----0--0-2--2----0--0-2-0-|
A|-------2--------------2-0h2----|-0------------0-------------|
E|-0---------------------------3-|----------------------------|

x1 x1
e|-------------------------------|--------------------------|
B|-------------------------------|--------------------------|
G|---4-------4-0-4--4------------|---4-------4-4--4-2-4-4-4-|
D|---2-0---0-2-0-2--2-0------2---|---4-------4-4--4-2-4-4-4-|
A|-------2--------------2-0h2----|-2---0-1-2----------------|
E|-0---------------------------3-|--------------------------|

[pre-chorus]
e|---------------------------------------------------------------------------|
B|----------------------------------------------------3----------------------|
G|----------------------------------------------------2------4---------------|
D|-2----------------2----------------4----------------0------4-4-4-4-4-------|
A|-2----------------2----------------4-----------------------2-2-2-2-2-------|
E|-0------------3-2-0------------0-0-2------------2-0-------------------0-3--|

[post-chorus]
e|-----3-----3---3-----5-----5---5-----0-----0--------------|
B|-----3-----3---3-----5-----5---5-----0-----0--------------|
G|----------------------------------------------------------|
D|-0-0---0-0---0---------------------------------5~---4-2-2-|
A|-----------------4-4---4-4---4----------------------------|
E|---------------------------------0-0---0-0---0------------|

[post-chorus 2]
e|-----3-----3---3-----5-----5---5-----0-----0---0----------------|
B|-----3-----3---3-----5-----5---5-----0-----0---0----------------|
G|----------------------------------------------------------------|
D|-0-0---0-0---0--------------------------------------------------|
A|-----------------4-4---4-4---4----------------------------------|
E|---------------------------------0-0---0-0---0---0-0-0-0-0--0-0-|

[guitar solo]
e|----|----------|----------------------12---------------------------------|
B|-12-|-14p12----|-14^(16)-12---15^(17)---15-12----------------------------|
G|-12-|-14p12-14-|-14^(16)-12------------------14-12---14--12h13-----------|
D|-12-|-14p12-14-|-14^(16)-12-----------------------14---14-----14-12-14---|
A|----|-------14-|---------------------------------------------------------|
E|----|----------|---------------------------------------------------------|
^repeat x7

e|-18+18+-----------------------------------------------------10--15^(17)--|
B|--------------------------------------------------------------12---------|
G|-------14^(16)14^(16)------------------14p12--------16~~~~~--------------|
D|---------------------------12h14-12h14------14p12-14---------------------|
A|---------------------14-14-----------------------------------------------|
E|-------------------------------------------------------------------------|

e|-(unintelligable picking in that scale done very fast)---18^(20)~--|
B|-------------------------------------------------------------------|
G|-------------------------------------------------------------------|
D|-------------------------------------------------------------------|
A|-------------------------------------------------------------------|
E|-------------------------------------------------------------------|

[bridge]
x4
e|-----------------|-------------------------------|-----------------|
B|-----------------|-------------------------------|-----------------|
G|-----------------|-----4-----4-----4-----4-----4-|-----------------|
D|-----------------|-----4-----4-----4-----4-----4-|-----------------|
A|-----------------|-2-2---1-2---1-2---1-2---1-2---|-2-2-2-2-2-2-2-2-|
E|-0-0-3-4-5-0-3-5-|-------------------------------|-0-0-0-0-0-0-0-0-|

[post chorus 3]
e|-----3-----3---3-----5-----5---5-----0-0-0-0-0-0-0-0-0-0-0-0-0-0-0-0-|
B|-----3-----3---3-----5-----5---5-----5-5-5-5-5-5-5-5-5-4-5-7-7-6-8-8-|
G|-------------------------------------4-4-4-4-4-4-4-4-4-3-4-6-6-5-7-7-|
D|-0-0---0-0---0-------------------------------------------------------|
A|-----------------4-4---4-4---4---------------------------------------|
E|---------------------------------------------------------------------|

e|-----3-----3---3-----5-----5---5--------------------------------|
B|-----3-----3---3-----5-----5---5-------------8-7-5--------------|
G|---------------------------------------------7-6-4--------------|
D|-0-0---0-0---0--------------------------------------------------|
A|-----------------4-4---4-4---4----------------------------------|
E|---------------------------------0-3-2-0---0--------------------|

[bridge 2]
e|--------------------------------------0-------12--12--------|
B|--------------------------------------0---------15----------|
G|---------------------------\\\--------0-----------------12~-|
D|-----------------------2~--\\\--------2---------------------|
A|--------------------------------------2---------------------|
E|-0----------------(0)----------3-2-0--0---------------------|

[Order]
[intro]

[verse intro]
[verse]
[pre-chorus]

[post-chorus]
[verse]
[pre-chorus]

[post-chorus 2 x2]
[guitar solo]
[bridge]

[post-chorus]
[post-chorus 3]
[bridge 2]

************************************

| / slide up
| \ slide down
| h hammer-on
| p pull-off
| ~ vibrato
| + harmonic
| x Mute note

************************************
Song info
Bad Medicine
Bon Jovi
2001
  • Rock
  • Classic Rock
Alternative tracks
Similar songs
Layla - Derek and the Dominos
Beast Of Burden - The Rolling Stones
The Rocker - Thin Lizzy
LA - Neil Young

Hi! Hope you enjoy backing track experience.
If you want to help us in the development of the project, feel free to donate!