Rock And Roll Band - Boston
00:00 / 00:00
Tabs and lyrics
Tunning: Standard (E A D G B e)
e|------------------------|-------------|---------------------|
B|------------------------|-------------|---------------------|
G|-4--4--4-4-4-4--4-----2-|-4-4-4-4-----|---------------------|
D|-4--4--2-4-2-4--4--2--2-|-4-4-4-4-----|---------------------|
A|-2--2--2-2-2-2--2--2--0-|-2-2-2-2-etc-|---------------------|
E|-------------------0----|-------------|---------------------|
The verse lick goes like this:

1-3. 4. 5-6.
e|--------------------------|-------|----------|-----------|--|
B|--------------------------|-------|----------|-----------|--|
G|-----------------2--------|-------|----------|-----------|--|
D|--2--------2-----2--------|-------|----------|-----------|--|
A|--2--------------0--0-3-4-|-0-----|-0-5--0-6-|-0h3p0-----|--|
E|--0--0-3-4---3-4----------|---3-4-|----------|-------3-4-|--|
The 1-3 is the ending of the lick for times 1-3, 4. for the 4th,
etc. After the sixth time it goes

e|------------------------------------------------------------|
B|--------------------------------------------9-7--5--4--5-5--|
G|--------------------------------------------9-8--6--4--6-6--|
D|--2--------2-----4--4-------4-----7-7-7---------------------|
A|--2--------------4--4-----4---6-4-7-7-7---------------------|
E|--0--0-3-4---3-4-2--2-5/6---------5-5-5-etc-----------------|
The chorus chords are

e|----------------|-------------------------------------|-----|
B|----------------|-------------------------------------|-----|
G|--6--6--2--2--4-|-----------------9-------------------|-----|
D|--6--6--2--2--4-|-2-4--4-5-6-7-9--9--9-11-9---------2-|-----|
A|--4--4--0--0--2-|-2-4--4-5-6-7-9--7--7--7-7-----2-4---|-----|
E|----------------|-0-2--2-3-4-5-7--0---------3/4-------|-----|
Then back to the verse and chorus, etc. The solo goes something
like this, but there's two guitars and I only did one.

e|-----------------------------------14-----------------------|
B|-------------------14--------------14-----------------------|
G|--13b15-.-.-.--11-----11--11-13b15----15b13-11--13----------|
D|---------------------------------------------------11-11----|
A|------------------------------------------------------------|
E|------------------------------------------------------------|

e|---------------------------------6-9^6-------9-9--16b18-----|
B|--7------7-10^7------7-10^7-9b11-------12b14----------------|
G|----9b11--------9b11----------------------------------------|
D|------------------------------------------------------------|
A|------------------------------------------------------------|
E|------------------------------------------------------------|


e|--14^16^14----14--19b21-19-19b21--17^19^17----17--21b23-21-21b23--|
B|-----------16------------------------------19---------------------|
G|------------------------------------------------------------------|
D|------------------------------------------------------------------|
A|------------------------------------------------------------------|
E|------------------------------------------------------------------|


e|------------------------------------------------------------|
B|------------------------------------------------------------|
G|--4--2------------------------------------------------------|
D|--------4/6-------------------------------------------------|
A|------------7-----------------------------------------------|
E|------------------------------------------------------------|



************************************

| h Hammer-on
| p Pull-off
| / Slide up
| b Bend
| ^ bend

************************************
Tunning: Standard (E A D G B e)
Standard Tuning:eBGDAE

TABULATURE LEGEND:
h=hammer on
p=pull off
x\\\=pick slide
~~=vibrato

[INTRO]
e----------------------|--------------------|---------------------|
B-o--------------------|--------------------|-------------------o-|
G----------------------|--------------------|----x\\\-------------|
D---4--4---2--4--2--4--|--4-----------2-----|----x\\\-------------|
A-o-2--2---2--2--2--2--|--2--0--2-----0-----|----x\\\-----------o-|
E----------------------|--------0--0-----0--|---------------------|
|---------------------|
PICK SLIDE HERE
[INTRO PART 2]
e------------------------------||
B------------------------------||
G--2h4p2h4p2...----------------||
D------------------------------||
A------------------------------||
E------------------------------||

[INTRO PART 3]
e-------------------------|---------------------------||
B-------------------------|---------------------------||
G-------------------------|---------------------------||
D--4--4--4--4--4--4--4--4-|--4--4--4--4-----2---------||
A--2--2--2--2--2--2--2--2-|--2--2--2--2--2--0-----2---||
E-------------------------|--------------------3--0---||

[VERSE]
e---------------------------|------------------------||
B---------------------------|------------------------||
G-------------------------2-|-2----------------------||
D----2----------2---------2-|-2----------------------||
A----2--------------3--4--0-|-0---3-4--0-------------||
E----0--0--3-4--------------|-------------3--4-------||
|----------------------------------------------------|
[REPEAT 3x]

[FILL 1]
e------------------------------------||
B------------------------------------||
G------------------------------------||



Suggest correction


What's this?

You can suggest a correction to this tab. Community and Mods will review your correction and vote to approve or reject it.




Song info
Rock And Roll Band
Boston
2001
  • Rock
  • AOR
  • Arena Rock
  • Hard Rock
Alternative tracks
Similar songs
Bad Rain - Slash
Play Ball - AC/DC
Black Sunshine - White Zombie

Hi! Hope you enjoy backing track experience.
If you want to help us in the development of the project, feel free to donate!