I Feel So - Box Car Racer
00:00 / 00:00
Tabs and lyrics
Tunning: Standard (E A D G B e)
Boxcar Racer
I feel so
Daniel Rowley


It starts off as a piano then the base the guitar. do this for a while..

e|-------------|
B|-------------|
G|-------------|
D|--5----------|
A|--x----------|
E|--3----------|

then play this along with the base

e|-------------------------------------|
B|-------------------------------------|
G|-------7-----------------------------|
D|-5-(5)-x-----------------------------|
A|-5-----5-----------------------------|
E|-3-----------------------------------|
Listen to the song to find out how many times you play it


[Verse] (x4)

e|-----------------------------------------------|
B|-----------------------------------------------|
G|---4----2----------2---------------------------|
D|-5---4--4-4--2-2-4-4-4-------------------------|
A|-----------------------------------------------|
E|-----------------------------------------------|


[Chorus]

e|-----------------------------------------------|
B|-----------------------------------------------|
G|-9-(x6)-9-(x6)-6-(x6)-8-(x6)-------------------|
D|-9------9------6------8------------------------|
A|-7------6------4------6------------------------|
E|-----------------------------------------------|

[Interlude]

thingy
e|----------------------------------------------|
B|----------------------------------------------|
G|----------7-(x4)------------------------------|
D|-5-(x6)---x-----------------------------------|
A|-5--------5-----------------------------------|
E|-3--------------------------------------------|
then play this 3 times

e|----------------------------------------------|
B|----------------------------------------------|
G|--4--(x12)------------------------------------|
D|--x-------------------------------------------|
A|--2-------------------------------------------|
E|----------------------------------------------|


[End]

e|----|
B|----|
G|-9--|
D|-9--|
A|-7--|
E|----|



************************************

| x Dead note
| (n) Ghost note

************************************
Tunning: Standard (E A D G B e)
Title : I Feel So
Artist : Boxcar Racer
Tabbed by : Graeme Lyon
Tuning : Standard - EADGBe

KEY :
b = bend
PM = plam muted
x = string totally muted


Piano Intro then:

e|-------------------------------------------|
B|-------------------------------------------| Try to match
G|-------------------------------------------| all the bends
D|-------------------------------------------| to Toms
A|-------------------------------------------| Delonges
E|--3b---bend-this-back-and-forth-for-a-bit--|


e|--5-5-5-5-5-5-5-5-5-5-5-5-5-5-------------------------|
B|--8-8-8-8-8-8-8-8-8-8-8-8-8-8-------------------------|
G|--7-7-7-7-7-7-7-7-7-7-7-7-7-7-------------------------|
D|--5-5-5-5-5-5-5-5-5-5-5-5-5-5-------------------------|
A|------------------------------------------------------|
E|--------------------------------3b--bend-like-before--|

MAIN RIFF:
e|-------------------------------------------|
B|-------------------------------------------|
G|----------------------7-7-7-7--------------|
D|----5--5-5---5--5-5---7-7-7-7--------------| X3
A|----5--5-5---5--5-5---5-5-5-5--------------|
E|--0h3--3-3-0h3--3-3------------------------|


e|-------------------------------------------|
B|-------------------------------------------|
G|----------------------4-4-4-4--------------|
D|----5--5-5---5--5-5---4-4-4-4--------------|
A|----5--5-5---5--5-5---2-2-2-2--------------|
E|--0h3--3-3-0h3--3-3------------------------|

PIANO BIT:
e|----------------------------------------|
B|----------------------------------------| This piano
G|----4-----------------------------------| bit keeps
D|--5----4-4---2-2--4-4-------------------| playing untill
A|----------------------------------------| the chorus
E|----------------------------------------|

PALM MUTED BIT:
e|------------------------------|
B|------------------------------|
G|------------1-1---------------|
D|--5-5--4-4--2-2--4-4----------|
A|--5-5--4-4--2-2--4-4----------|
E|--3-3--2-2--0-0--2-2----------|
PM............................

CHORUS:
e|--0-0-0-0-0--------------------------------------|
B|--0-0-0-0-0--------------------------------------|
G|--1-1-1-1-1---8-8-8-8-8---6-6-6-6-6---8-8-8-8-8--|
D|--2-2-2-2-2---8-8-8-8-8---6-6-6-6-6---8-8-8-8-8--|
A|--2-2-2-2-2---6-6-6-6-6---4-4-4-4-4---6-6-6-6-6--|
E|--0-0-0-0-0--------------------------------------|

MAIN RIFF
PIANO BIT
PALM MUTED BIT
CHORUS

e|-------------------------------------|
B|-------------------------------------|
G|-------------------------------------|
D|--5----------------------------------|
A|--5---let-ring-----------------------|
E|--3----------------------------------|


e|----------------------------------------| There is
B|----------------------------------------| Feedback
G|----------------------7-7-7-7-----------| here
D|----5--5-5---5--5-5---7-7-7-7-----------| X4
A|----5--5-5---5--5-5---5-5-5-5-----------|
E|--0h3--3-3-0h3--3-3---------------------|
PM...................


e|---------------------------------|
B|---------------------------------|
G|--4-4-4-4-4-4-4-4-4-4------------|
D|--x-x-x-x-x-x-x-x-x-x---rest-----| X2
A|--2-2-2-2-2-2-2-2-2-2------------|
E|---------------------------------|


e|------------------------------------------| Fret the 2
B|------------------------------------------| with your
G|--4-4-4-4-4-4-4-4-4-4-4-4-4-4-4-4-4-------| first finger
D|--x-x-x-x-x-x-x-x-x-x-x-x-x-x-x-x-x--rest-| and mute the x
A|--2-2-2-2-2-2-2-2-2-2-2-2-2-2-2-2-2-------| with it too.
E|------------------------------------------|

CHORUS X2

END ON :
e|-------------|
B|-------------|
G|---1---------|
D|---2--let----|
A|---2--ring---|
E|---0---------|

I got this TAB by watching their video.
I think it's pretty exact
This is the first time I've tabbed
out a whole song so
E-Mail me comments or corrections at
look_at_me_monkey@hotmail.com


Lyrics:

Sometimes
I wish I was brave
I wish I was stronger
I wish I could feel no pain
I wish I was young
I wish I would try
I wish I was honest
I wish I was you not I

'Cos
I feel so mad
I feel so angry
I feel so callous
So lost, confused, just mad
I feel so cheap
So used, unfaithful
Let's start over
Let's start over

Sometimes
I wish I was smart
I wish I made cures for
How people are
I wish I had power
I wish I could leave
I wish I could change the world
For you and me

'Cos
I feel so mad
I feel so angry
I feel so callous
So lost, confused, just mad
I feel so cheap
So used, unfaithful
Let's start over
Let's start over

'Cos
I feel so mad
I feel so angry
I feel so callous
So lost, confused, just mad
I feel so cheap
So used, unfaithful
Let's start over
Let's start over

I feel so mad
I feel so angry
I feel so callous
So lost, confused, just mad
I feel so cheap
So used, unfaithful
Let's start over
Let's start over
Tunning: Standard (E A D G B e)
Piano Intro
e-------7---8---7--5------8--7-----------------------------}
b-8---8---7---5--7--3--8----7---5-8-3-7-8------------------}
g---7------------------0-7---------------------------------}
d-5-------4---2---4------0-4--2-2-0-4-4-5------------------}
a------------------5---------------------------------------}
e----------------------------------------------------------}


Intro Part 2
e----------------------------------------------------------}
b----------------------------------------------------------}
g----------------------------------------------------------}
d---5-5--4-4--2-2--4-4--5-5--4-4--2-2--4-4-----------------}
a----------------------------------------------------------}
e----------------------------------------------------------}

e----------------------------------------------------------}
b----------------------------------------------------------}
g----------------------------------------------------------}
d-----------------5-5-5-5-5-5-5-5-5-5-5-5-5-5-5-5----------}
a--5b-------5b----x-x-x-x-x-x-x-x-x-x-x-x-x-x-x-x----------}
e--3b-------3b----3-3-3-3-3-3-3-3-3-3-3-3-3-3-3-3----------}

e-----------------------------------------------------------
b-----------------------------------------------------------
g---------------7-7-7-7----------------7-7-7-7--------------
d-6/5-5--6/5-5--x-x-x-x--6/5-5--6/5-5--x-x-x-x--6/5-5--6/5-5
a-x/x-x--x/x-x--5-5-5-5--x/x-x--x/x-x--5-5-5-5--x/x-x--x/x-x
e-4/3-3--3/3-3-----------4/3-3--4/3-3-----------4/3-3--4/3-3
Up & DOWN STROkES,,,,,,,,,,,,,,,,,,,,,,,,,,,,,,,,,,,,,,,,,,,
e-------------------------------------------------------}
b-------------------------------------------------------}
g--7-7-7-7-----------------4--4-------------------------}2X
d--x-x-x-x--6/5-5--6/5-5---x--x-------------------------}
a--5-5-5-5--x/x-x--x/x-x---2--2-------------------------}
e-----------4/3-3--4/3-3--------------------------------}
,,,,,,,,,,,,,,,,,,,,,,,,,,,,,,,,,,,,,,,,,,,,,,,,,,,,,,,,

verse
e----------------------------------------------------------}
b----------------------------------------------------------}
g----------------------------------------------------------}
d---5-5--4-4--2-2--4-4--5-5--4-4--2-2--4-4-----------------}
a----------------------------------------------------------}
e----------------------------------------------------------}

e----------------------------------------------------------}
b----------------------------------------------------------}
g----------------------------------------------------------}
d--5-5--4-4--2-2--4-4--------------------------------------}
a--5-5--4-4--2-2--4-4--------------------------------------}
e--3-3--2-2--0-0--2-2--------------------------------------}
PAlM MUTED...........

Chorus x2
e----------------------------------------------------------}
b----------------------------------------------------------}
g--9999999---8888888---6666666---8888888-------------------}
d--9999999---8888888---6666666---8888888-------------------}
a--7777777---6666666---4444444---6666666-------------------}
e----------------------------------------------------------}

e-----------------------------------------------------------
b-----------------------------------------------------------
g---------------7-7-7-7----------------7-7-7-7--------------
d-6/5-5--6/5-5--x-x-x-x--6/5-5--6/5-5--x-x-x-x--6/5-5--6/5-5
a-x/x-x--x/x-x--5-5-5-5--x/x-x--x/x-x--5-5-5-5--x/x-x--x/x-x
e-4/3-3--4/3-3-----------4/3-3--4/3-3-----------4/3-3--4/3-3

e----------------------------------------------------------}
b----------------------------------------------------------}
g--7-7-7-7----------------4--4-----------------------------}
d--x-x-x-x--6/5-5--6/5-5--x--x-----------------------------}
a--5-5-5-5--x/x-x--x/x-x--2--2-----------------------------}
e-----------4/3-3--4/3-3-----------------------------------}

Verse
e----------------------------------------------------------}
b----------------------------------------------------------}
g----------------------------------------------------------}
d---5-5--4-4--2-2--4-4--5-5--4-4--2-2--4-4-----------------}
a----------------------------------------------------------}
e----------------------------------------------------------}

e----------------------------------------------------------}
b----------------------------------------------------------}
g----------------------------------------------------------}
d--5-5--4-4--2-2--4-4--------------------------------------}
a--5-5--4-4--2-2--4-4--------------------------------------}
e--3-3--2-2--0-0--2-2--------------------------------------}
PALM MUTED...........

Chorus x2
e----------------------------------------------------------}
b----------------------------------------------------------}
g--9999999---8888888---6666666---8888888-------------------}
d--9999999---8888888---6666666---8888888-------------------}
a--7777777---6666666---4444444---6666666-------------------}
e----------------------------------------------------------}

RIFF
e----------------------------------------------------------}
b----------------------------------------------------------}
g-------------------------7-7-7-7---7-7-7-7--7-7-7-7-------}
d-5-----------------------7-7-7-7---7-7-7-7--7-7-7-7-------}
a-5-(ring)--Pickslide-----5-5-5-5---5-5-5-5--5-5-5-5-------}
e-3--------------------------------------------------------}
UP & DOWN STRUMING

e---------------------------------}
b---------------------------------}
g---------------7-7-7-7-----------}x3
d-6/5-5--6/5-5--x-x-x-x-----------}
a-x/x-x--x/x-x--5-5-5-5-----------}
e-4/3-3--4/3-3--------------------}
UP & DOWN STRUMING

e----------------------------------------------------------}
b------------------------R---------------------------------}
g-444-444-4444-444-444-4-E------444-444-4444-444-444-------}
d-xxx-xxx-xxxx-xxx-xxx-x-S(2x)--xxx-xxx-xxxx-xxx-xxx-------}
a-222-222-2222-222-222-2-T------222-222-2222-222-222-------}
e----------------------------------------------------------}

Chorus x2
e----------------------------------------------------------}
b----------------------------------------------------------}
g--9999999---8888888---6666666---8888888-------------------}
d--9999999---8888888---6666666---8888888-------------------}
a--7777777---6666666---4444444---6666666-------------------}
e----------------------------------------------------------}

END ON
e---------}
b---------}
g--9------}
d--9------}
a--7------}
e---------}
Tunning: Standard (E A D G B e)
!!! USA !!!Artist: Box Car Racer
Album: Box Car Racer
Song: I Feel So
Tuning: Normal


Guitar 1: Normal Tuning (Distortion)
Guitar 2: Normal Tuning (Distortion)
Guitar 3: Normal Tuning (Acoustic)



Symbols: | | = Hold and randomly bend note
/ \ = Tremelo
( ) = Hold Note
*X*\_x_x = Pick Scrape


On Chorus you can play bottom E chord or this:

e----------------------------------------------------------------
B----------------------------------------------------------------
G--9-------------------------------------------------------------
D--9-------------------------------------------------------------
A--7-------------------------------------------------------------
E--0-------------------------------------------------------------


Intro: Part 1

Guitar 3:
e-----------------------------------------------------------------
B-----------------------------------------------------------------
G-----4-----5-----4-----2-----4-----5-----4-----2-----------------
D--5--5--4--4--2--2--4--4--5--5--4--4--2--2--4--4-----------------
A-----------------------------------------------------------------
E-----------------------------------------------------------------

Intro: Part 2

Guitar 2:
e-----------------------------------------------------------------
B-----------------------------------------------------------------
G-----------------------------------------------------------------
D--(5)------------------------------------------------------------
A--(5)------------------------------------------------------------
E--|3|--|3|--|3|--|3|--|3|--|3|--|3|--|3|--|3|--|3|--|3|--|3|--|3|


Guitar 1:
e-----------------------------------------------------------------
B-----------------------------------------------------------------
G--/12\-----------------------------------------------------------
D----x------------------------------------------------------------
A--/10\-----------------------------------------------------------
E-----------------------------------------------------------------


Guitar 1 & 2:
e-----------------------------------------------------------------
B-----------------------------------------------------------------
G--------------------------7--7--7-----------------------------7--
D--4--5--5-----4--5--5-----x--x--x-----4--5--5-----4--5--5-----x--
A--4--5--5-----4--5--5-----5--5--5-----4--5--5-----4--5--5-----5--
E--2--3--3--0--2--3--3--0-----------0--2--3--3--0--2--3--3--0-----

e-----------------------------------------------------------------
B-----------------------------------------------------------------
G--7--7-----------------------------7--7--7-----------------------
D--x--x-----4--5--5-----4--5--5-----x--x--x-----4--5--5-----4--5--
A--5--5-----4--5--5-----4--5--5-----5--5--5-----4--5--5-----4--5--
E--------0--2--3--3--0--2--3--3--0-----------0--2--3--3--0--2--3--

e-----------------------------------------------------------------
B--------3--3--3--3-----------------------------------------------
G--------4--4--4--4-----------------------------------------------
D--5-----4--4--4--4-----------------------------------------------
A--5-----2--2--2--2-----------------------------------------------
E--3--0-----------------------------------------------------------


Verse:

Guitar 3:
e-----------------------------------------------------------------
B-----------------------------------------------------------------
G-----4-----5-----4-----2-----4-----5-----4-----2-----------------
D--5--5--4--4--2--2--4--4--5--5--4--4--2--2--4--4-----------------
A-----------------------------------------------------------------
E-----------------------------------------------------------------

Guitar 1:
e-----------------------------------------------------------------
B-----------------------------------------------------------------
G-----------------------------------------------------------------
D-----------------------------------------------------------------
A--5--5--4--4--2--2--4--4--5--5--4--4--2--2--4--4-----------------
E--3--3--2--2--0--0--2--2--3--3--2--2--0--0--2--2-----------------
p.m.__________________________________________|


Chorus:

Guitar 1 & 2:
e-----------------------------------------------------------------
B-----------------------------------------------------------------
G----------------------------------------------------6-6-6-6-6-6-6
D--2-2-2-2-2-2-2-2-2-2-2-2--9-9-9-9-9-9-9-9-9-9-9-9--6-6-6-6-6-6-6
A--2-2-2-2-2-2-2-2-2-2-2-2--6-6-6-6-6-6-6-6-6-6-6-6--4-4-4-4-4-4-4
E--0-0-0-0-0-0-0-0-0-0-0-0----------------------------------------

e-----------------------------------------------------------------
B-----------------------------------------------------------------
G--6-6-6-6-6------------------------------------------------------
D--6-6-6-6-6--9-9-9-9-9-9-9-9-9-9-9-9-----------------------------
A--4-4-4-4-4--6-6-6-6-6-6-6-6-6-6-6-6-----------------------------
E-----------------------------------------------------------------

e-----------------------------------------------------------------
B-----------------------------------------------------------------
G--------------------------7--7--7-----------------------------7--
D--4--5--5-----4--5--5-----x--x--x-----4--5--5-----4--5--5-----x--
A--4--5--5-----4--5--5-----5--5--5-----4--5--5-----4--5--5-----5--
E--2--3--3--0--2--3--3--0-----------0--2--3--3--0--2--3--3--0-----

e-----------------------------------------------------------------
B-----------------------------------------------------------------
G--7--7-----------------------------7--7--7-----------------------
D--x--x-----4--5--5-----4--5--5-----x--x--x-----4--5--5-----4--5--
A--5--5-----4--5--5-----4--5--5-----5--5--5-----4--5--5-----4--5--
E--------0--2--3--3--0--2--3--3--0-----------0--2--3--3--0--2--3--

e-----------------------------------------------------------------
B-----------------------------------------------------------------
G--------4--4--4--4-----------------------------------------------
D--5-----4--4--4--4-----------------------------------------------
A--5-----1--1--1--1-----------------------------------------------
E--3--0-----------------------------------------------------------


Verse:
Guitar 3:
e-----------------------------------------------------------------
B-----------------------------------------------------------------
G-----4-----5-----4-----2-----4-----5-----4-----2-----------------
D--5--5--4--4--2--2--4--4--5--5--4--4--2--2--4--4-----------------
A-----------------------------------------------------------------
E-----------------------------------------------------------------

Guitar 1:
e-----------------------------------------------------------------
B-----------------------------------------------------------------
G-----------------------------------------------------------------
D-----------------------------------------------------------------
A--5--5--4--4--2--2--4--4--5--5--4--4--2--2--4--4-----------------
E--3--3--2--2--0--0--2--2--3--3--2--2--0--0--2--2-----------------
p.m.__________________________________________|


Chorus:

Guitar 1 & 2:
e-----------------------------------------------------------------
B-----------------------------------------------------------------
G----------------------------------------------------6-6-6-6-6-6-6
D--2-2-2-2-2-2-2-2-2-2-2-2--9-9-9-9-9-9-9-9-9-9-9-9--6-6-6-6-6-6-6
A--2-2-2-2-2-2-2-2-2-2-2-2--6-6-6-6-6-6-6-6-6-6-6-6--4-4-4-4-4-4-4
E--0-0-0-0-0-0-0-0-0-0-0-0----------------------------------------

e-----------------------------------------------------------------
B-----------------------------------------------------------------
G--6-6-6-6-6------------------------------------------------------
D--6-6-6-6-6--9-9-9-9-9-9-9-9-9-9-9-9-----------------------------
A--4-4-4-4-4--6-6-6-6-6-6-6-6-6-6-6-6-----------------------------
E-----------------------------------------------------------------


Bridge:
Guitar 2:
e-----------------------------------------------------------------
B-----------------------------------------------------------------
G-----------------------------------------------------------------
D--(5)------------------------------------------------------------
A--(5)------------------------------------------------------------
E--|3|--|3|--|3|--|3|--|3|--|3|--|3|--|3|--|3|--|3|--|3|--|3|--|3|

e-----------------------------------------------------------------
B-----------------------------------------------------------------
G-----------------------------------------------------------------
D--(5)------------------------------------------------------------
A--(5)------------------------------------------------------------
E--|3|--|3|--|3|--|3|--|3|--|3|--|3|--|3|--|3|--*X*\_x_x_x_x_x_x_x

Guitar 1:
e-----------------------------------------------------------------
B-----------------------------------------------------------------
G-----------------------------------------------------------------
D--7-7-7-7----7-7-7-7----7-7-7-7----7-7-7-7-----------------------
A--5-5-5-5----5-5-5-5----5-5-5-5----5-5-5-5-----------------------
E-----------------------------------------------------------------
p.m._____________________________________|
e-----------------------------------------------------------------
B-----------------------------------------------------------------
G--------------------------7-7-7-7--------------------------7-7-7-
D--------------------------x-x-x-x--------------------------x-x-x-
A--4--5--5--5--4--5--5--5--5-5-5-5--4--5--5--5--4--5--5--5--5-5-5-
E--2--3--3--3--2--3--3--3-----------2--3--3--3--2--3--3--3--------
p.m.___________________| p.m.___________________|
e-----------------------------------------------------------------
B-----------------------------------------------------------------
G--7--------------------------7-7-7-7--------------------------7-7
D--x--------------------------x-x-x-x--------------------------x-x
A--5--4--5--5--5--4--5--5--5--5-5-5-5--4--5--5--5--4--5--5--5--5-5
E-----2--3--3--3--2--3--3--3-----------2--3--3--3--2--3--3--3-----
p.m.___________________| p.m.___________________|

e-----------------------------------------------------------------
B-----------------------------------------------------------------
G--4--------------------------------------------------------------
D--x--------------------------------------------------------------
A--2--------------------------------------------------------------
E-----------------------------------------------------------------

Rhythm played with snare drum.

Reapeat Chorus 2X and end on this:

e-----------------------------------------------------------------
B-----------------------------------------------------------------
G-----------------------------------------------------------------
D--2--------------------------------------------------------------
A--2--------------------------------------------------------------
E--0--------------------------------------------------------------
Tunning: Standard (E A D G B e)
I Feel So
Box Car Racer
Tabbed by shaggs

Standard Tuning EADGBe

~=let ring
pm=palm mute
(*)=you don't have to play it, but it sounds good too.

!FOR THE INTRO PLAY THE STUFF BELOW!

e|--------|
B|--------|
G|--------| Start out the song by bending this chord once.
D|--5~~~~~| NOTE: have the chord already bended before you strike it
A|--5~~~~~| and then slowly unbend it.
E|--3~~~~~|


e|--------|
B|--------|
G|--------| Then play this as many times as you see fit
D|--5-----|
A|--x-----|
E|--3-----|


e|---------------------------|
B|---------------------------|
G|-----------------7777------| Play this 4 times
D|---5-555--5-555--xxxx------|
A|---5-555--5-555--5555------|
E|---0-333--0-333------------|


!FOR THE VERSE PLAY THE STUFF BELOW!

2nd guitar

e|----------------------|
B|----------------------|
G|-----4--5--4--2-------| 2nd guitar plays this part four times
D|---5-5-44-22-44-------|
A|----------------------|
E|----------------------|

1st guitar

e|--------------------|
B|--------------------|
G|--------------------| 1st guitar comes in and plays this twice
D|--55--44-(22)-44----| when the 2nd guitar is starting to play his
A|--55--44--22--44----| piece for he third time.
E|--33--22--00--22----|
\......pm...../

!FOR THE CHORUS PLAY THE STUFF BELOW!


I know this looks crazy, but it sounds right...so
bear with me and try it. the other peple that have tabbed
this have done a brilliant job, but when it came to the
chorus it just didnt sound right, it was to high pitched for
the song, so hear it is.

e|-------------------------------------|
B|-------------------------------------|
G|----------444444--666666--888888-----| Both guitars play this
D|--(2222)--444444--666666--888888-----| 4 times
A|---2222---222222--444444--666666-----|
E|---0000------------------------------|


e|------------------------|
B|------------------------|
G|--------------7777------| Then both guitars play this
D|--5-555-5-555-xxxx------| 4 times
A|--5-555-5-555-5555------|
E|--0-333-0-333-----------|


Then Verse x1

Then chorus x1

e|------------------------|
B|------------------------|
G|--------------7777------| Then both guitars play this
D|--5-555-5-555-xxxx------| 4 times for the interlude
A|--5-555-5-555-5555------|
E|--0-333-0-333-----------|
\....pm.../


e|-------|
B|-------|
G|--4----| Then play this as many times as you see
D|--x----| fit.
A|--2----|
E|-------|

Then Chorus x4

e|------------|
B|------------|
G|------------| Then end on this!!
D|-(2)~~~~~~~~|
A|--2~~~~~~~~~|
E|--0~~~~~~~~~|


Thats it
Rock on!!!!!!!!!!!!!!!!!



************************************

| x Dead note
| (n) Ghost note
| ~ Vibrato

************************************
Tunning: Nashville (E A D G B E)
okay im really sick of people getting this song wrong especially on the
acoustic part. ITS NOT THAT HARD PEOPLE. here ya go

Piano Intro

Acoustic Intro x2
E|----------------------------------------------------------------||
B|----------------------------------------------------------------||
G|-----0--4--0--5---0--4--0--2------------------------------------||
D|-----5--5--4--4---2--2--4--4------------------------------------||
A|----------------------------------------------------------------||
E|----------------------------------------------------------------||

Intro (cont.) x2 (Electric w/ distortion)
E|----------------------------------------------------------------||
B|----------------------------------------------------------------||
G|----------------------------------------------------------------||
D|----5~~~~~~~~~~~~~~~~~~~~~~~~~~~~~~~~~~~~~~~~~~-----------------||
A|----5~~~~~~~~~~~~~~~~~~~~~~~~~~~~~~~~~~~~~~~~~~-----------------||
E|----3~~~~~~~~~~~~~~~~~~~~~~~~~~~~~~~~~~~~~~~~~~-----------------||
let that ring out for a while (about 5-8 seconds, then do it again
remember to bend occasionally)

Intro (cont.)
E|----------------------------------------------------------------||
B|----------------------------------------------------------------||
G|--------12-12-12-12-12-12-12-12-12-12-12-12-12-12-12-12-12-12b--||
D|--------x--x--x--x--x--x--x--x--x--x--x--x--x--x--x--x--x--x----||
A|--------10-10-10-10-10-10-10-10-10-10-10-10-10-10-10-10-10-10b--||
E|----0-----------------------------------------------------------||
The # of strokes on the octave note may not be right but just do it
as fast as you can for about 4 seconds

Intro (cont.)
E|----------------------------------------------------------------||
B|----------------------------------------------------------------||
G|----------------------------------------------------------------||
D|----3~~~~~~~~~~~~~~~~~------------------------------------------||
A|----3-~~~~~~~~~~~~~~~~------------------------------------------||
E|----5~~~~~~~~~~~~~~~~~->>>>>>>>>>>>>>>>>>>>>>>>>>>>>>>>>>-------||
pickslide
Main Riff x3
E|-------------------------------(--------------------------------||
B|-------------------------------(--------------------------------||
G|----------------7-7-7-7--------(-------------------4~~~~~~~-----||
D|--5~~-5--5~~-5--x-x-x-x--------(-5~~-5--5~~-5~~p0--4~~~~~~~-----||
A|--5~~-5--5~~-5--5-5-5-5--------(-5~~-5--5~~-5~~p0--2~~~~~~~-----||
E|--0h3-3--0h3-3-----------------(-0h3-3--0h3-3~~p0---------------||
then after the thrid time do this ^

Main Riff (cont.) x3
E|-------------------------------(--------------------------------||
B|-------------------------------(--------------------------------||
G|----------------7-7-7-7--------(--------------------------------||
D|--5~~-5--5~~-5--x-x-x-x--------(--5~~-5~~5---5~~4---------------||
A|--5~~-5--5~~-5--5-5-5-5--------(--5~~-5~~5---5~~4---------------||
E|--0h3-3--0h3-3-----------------(--0h3-3--0h3-3~~2---------------||
then after the third time do this ^

Verse x4 (Acoustic)
E|----------------------------------------------------------------||
B|----------------------------------------------------------------||
G|-----0--4--0--5---0--4--0--2------------------------------------||
D|-----5--5--4--4---2--2--4--4------------------------------------||
A|----------------------------------------------------------------||
E|----------------------------------------------------------------||

Verse x2 (comes in after the acoustic has gone twice)(Electric)
E|----------------------------------------------------------------||
B|----------------------------------------------------------------||
G|----------------------------------------------------------------||
D|---5-5--4-4--2-2--4-4-------------------------------------------||
A|---5-5--4-4--2-2--4-4-------------------------------------------||
E|---5-5--2-2--0-0--2-2-------------------------------------------||

Chorus x2
E|----------------------------------------------------------------||
B|----------------------------------------------------------------||
G|----------------------------------------------------------------||
D|-----------------9-9-9-9-9-9-9--6-6-6-6-6-6-6--9-9-9-9-9-9-9----||
A|--2-2-2-2-2-2-2--6-6-6-6-6-6-6--4-4-4-4-4-4-4--6-6-6-6-6-6-6----||
E|--0-0-0-0-0-0-0-------------------------------------------------||

Main Riff x3
E|-------------------------------(--------------------------------||
B|-------------------------------(--------------------------------||
G|----------------7-7-7-7--------(--------------------------------||
D|--5~~-5--5~~-5--x-x-x-x--------(--5~~-5~~5---5~~4---------------||
A|--5~~-5--5~~-5--5-5-5-5--------(--5~~-5~~5---5~~4---------------||
E|--0h3-3--0h3-3-----------------(--0h3-3--0h3-3~~2---------------||
then after the third time do this ^

Verse x4 (Acoustic)
E|----------------------------------------------------------------||
B|----------------------------------------------------------------||
G|-----0--4--0--5---0--4--0--2------------------------------------||
D|-----5--5--4--4---2--2--4--4------------------------------------||
A|----------------------------------------------------------------||
E|----------------------------------------------------------------||

Verse x2 (comes in after the acoustic has gone twice)(Electric)
E|----------------------------------------------------------------||
B|----------------------------------------------------------------||
G|----------------------------------------------------------------||
D|---5-5--4-4--2-2--4-4-------------------------------------------||
A|---5-5--4-4--2-2--4-4-------------------------------------------||
E|---5-5--2-2--0-0--2-2-------------------------------------------||

Chorus x2
E|----------------------------------------------------------------||
B|----------------------------------------------------------------||
G|----------------------------------------------------------------||
D|-----------------9-9-9-9-9-9-9--6-6-6-6-6-6-6--9-9-9-9-9-9-9----||
A|--2-2-2-2-2-2-2--6-6-6-6-6-6-6--4-4-4-4-4-4-4--6-6-6-6-6-6-6----||
E|--0-0-0-0-0-0-0-------------------------------------------------||

Bridge
E|----------------------------------------------------------------||
B|----------------------------------------------------------------||
G|----------------------------------------------------------------||
D|----5~~~~~~~~~~~~~~~~~~~~~~~~~~~~~~~~~~~~~~~~~~-----------------||
A|----5~~~~~~~~~~~~~~~~~~~~~~~~~~~~~~~~~~~~~~~~~~-----------------||
E|----3~~~~~~~~~~~~~~~~~~~~~~~~~~~~~~~~~~~~~~~~~~-0h3b-0h3b-0-3~~-||
let that ring out for a while (about 5-8 seconds, ^ this part isnt
in the song but it sounds really good with it)


Bridge (cont.)
E|----------------------------------------------------------------||
B|----------------------------------------------------------------||
G|----------------------------------------------------------------||
D|----------------------------------------------------------------||
A|---------------------------5-5-5-5---5-5-5-5---5-5-5-5--5-5-5-5-||
E|-->>>>>>>>>>>>>>>>>>>>>>----------------------------------------||
Pickslide ^^^^^palm muted^^^^^^^^^^^^^^^^^^^^^


Bride (cont.)x3
E|-------------------------(--------------------------------------||
B|-------------------------(--------------------------------------||
G|-----------------5-5-5-5-(-=palm muted=-------------------------||
D|-5---5--5---5----x-x-x-x-(-5---5--5---5-------------------------||
A|-5---5--5---5----7-7-7-7-(-5---5--5---5-------------------------||
E|-0h3-3--0h3-3------------(-0h3-3--0h3-3--->>>>>>>>>>>>>>>>>>>---||
^^^^^^^^^^p.m. after the third time ^^




Bridge (cont.) x2
E|----------------------------------------------------------------||
B|----------------------------------------------------------------||
G|----------------------------------------------------------------||
D|--4-4-4--4-4-4--4-4-4-4--4-4-4--4-4-4-4-4-----------------------||
A|--x-x-x--x-x-x--x-x-x-x--x-x-x--x-x-x-x-x-----------------------||
E|--2-2-2--2-2-2--2-2-2-2--2-2-2--2-2-2-2-2-----------------------||


Bridge (cont.)
E|----------------------------------------------------------------||
B|----------------------------------------------------------------||
G|----------------------------------------------------------------||
D|-4-4-4--4-4-4--4-4-4-4--4-4-4--4-4-4--4-4-4-4--4-4-4-4-4-4-4----||
A|-x-x-x--x-x-x--x-x-x-x--x-x-x--x-x-x--x-x-x-x--x-x-x-x-x-x-x----||
E|-2-2-2--2-2-2--2-2-2-2--2-2-2--2-2-2--2-2-2-2--2-2-2-2-2-2-2----||


Chorus x4
E|----------------------------------------------------------------||
B|----------------------------------------------------------------||
G|----------------------------------------------------------------||
D|-----------------9-9-9-9-9-9-9--6-6-6-6-6-6-6--9-9-9-9-9-9-9----||
A|--2-2-2-2-2-2-2--6-6-6-6-6-6-6--4-4-4-4-4-4-4--6-6-6-6-6-6-6----||
E|--0-0-0-0-0-0-0-------------------------------------------------||

End on
E|----------------||
B|----------------||
G|----------------||
D|-2~~~~~~~~~~~~~~||
A|-2~~~~~~~~~~~~~~||
E|-0~~~~~~~~~~~~~~||

and thats it. listen to the song to get timing down. the # of strokes
may not be right no the chorus and octaves on the bridge but im pretty
sure its right. besides the # of strokes, its 100% correct i garuntee it.
Tunning: Standard (E A D G B e)
----------------------------------------------------------------------------
I FEEL SO - Boxcar Racer
----------------------------------------------------------------------------
Tabbed by: Tara
h=hold
b=bend
~=scratch down to(next chord written)

Tuning: standard

-The beginning of the song starts with a little piano thing which goes from 0:00-0:18
-Then theres a little bass thing from 0:19-0:27 which i tabbed out-
Intro bass thing:
e|---------------------------------------------------------------|
B|-----00---------------------------00---------------------------|
G|------------44-----22-----44------------44------22------44-----|
D|---------------------------------------------------------------|
A|---------------------------------------------------------------|
E|---------------------------------------------------------------|
[Intro]:
e|---------------------------------------------------------------|
B|---------------------------------------------------------------|
G|---------------------------------------------------------------|
D|---55-----55---------------------------------------------------|
A|---xx-----xx---------------------------------------------------|
E|---33hhhhh33hhhhhh---------------------------------------------|

Then from 0:46-0:50 play first measure (Then from 0:50-0:54 play second measure)
e|-----------|---------------------------------------------------|
B|-----------|---------------------------------------------------|
G|---7-------|-----------7777-5----------------------------------|
D|---x-------|-----------xxxx-x----------------------------------|
A|---5-------|-----------5555-3----------------------------------|
E|-----------|---------------------------------------------------|

[Bridge]
From 1:04-1:12, then pause. Then repeat 1:12-1:23 then pause.
e|---------------------------------------------------------------|
B|---------------------------------------------------------------|
G|-------------77------------------------------------------------|
D|---55-55-55--xx------------------------------------------------|
A|---xx-xx-xx--55------------------------------------------------|
E|---33-33-33----------------------------------------------------|x8

[Verse 1]Guitar 1- (1:24-1:41)
e|----------------------------------------------------------------|
b|----------------------------------------------------------------|
g|---4------------------------------------------------------------|
d|-5---44--22-44--------------------------------------------------|
a|----------------------------------------------------------------|
e|----------------------------------------------------------------|x4
[Verse 1]Guitar 2-(1:33-1:40)
e|----------------------------------------------------------------|
b|----------------------------------------------------------------|
g|----------------------------------------------------------------|
d|--55--44--22--44-----55--44--22--44-----------------------------|
e|--xx--xx--22--xx-----xx--xx--22--xx-----------------------------|
a|--33--22--00--22-----33--22--00--22-----------------------------|

[Chorus]- (1:42-1:59)
e|----------------------------------------------------------------|
B|----------------------------------------------------------------|
G|---9-(x9)--8-(x9)--6-(x9)--8-(x9)-------------------------------|
D|---x-------x-------x-------x------------------------------------|
A|---7-------6-------4-------6------------------------------------|
E|----------------------------------------------------------------|x2

[Bridge] From 2:00-2:08.
e|---------------------------------------------------------------|
B|---------------------------------------------------------------|
G|-------------77------------------------------------------------|
D|---55-55-55--xx------------------------------------------------|
A|---xx-xx-xx--55------------------------------------------------|
E|---33-33-33----------------------------------------------------|x4

[Verse 2]Guitar 1- (2:09-2:26)
e|----------------------------------------------------------------|
b|----------------------------------------------------------------|
g|---4------------------------------------------------------------|
d|-5---44--22-44--------------------------------------------------|
a|----------------------------------------------------------------|
e|----------------------------------------------------------------|x4

[Verse 2]Guitar 2-(2:18-2:26)
e|----------------------------------------------------------------|
b|----------------------------------------------------------------|
g|----------------------------------------------------------------|
d|--55--44--22--44-----55--44--22--44-----------------------------|
e|--xx--xx--22--xx-----xx--xx--22--xx-----------------------------|
a|--33--22--00--22-----33--22--00--22-----------------------------|

[Chorus]- (2:27-2:44)
e|----------------------------------------------------------------|
B|----------------------------------------------------------------|
G|---9-(x9)--8-(x9)--6-(x9)--8-(x9)-------------------------------|
D|---x-------x-------x-------x------------------------------------|
A|---7-------6-------4-------6------------------------------------|
E|----------------------------------------------------------------|x2

(2:45-3:00) (3:01-3:03) (3:04-3:09) (3:10-3:12-------|
e|-----------------|-------------------|---------|------------------|
B|-----------------|-------------------|---------|------------------|
G|-----------------|-------------------|---------|------------------|
D|---5-----5-------|---10-----------4--|--7-(x4)-|--10------4-------|
A|---x-----x-------|---x------------x--|--7------|--x-------x-------|
E|---3hhhhh3hhhhhh-|---8-~~~~~~~~-- 2--|--5------|--8-~~~~~~2-------|

(3:12-3:20)
e|-----------------------------------------------------------------|
B|-----------------------------------------------------------------|
G|-----------------------------------------------------------------|
D|--5-(x7)-7-------------------------------------------------------|
A|--5------7-------------------------------------------------------|
E|--3------5-------------------------------------------------------|x4

(3:21-3:36)
e|----------------|------------------------------------------------|
b|----------------|------------------------------------------------|
g|--4--(x17)------|--4-(x36)---------------------------------------|
d|--x-------------|--x---------------------------------------------|
e|--2-------------|--2---------------------------------------------|
a|------------(x2)|------------------------------------------------|

[Chorus]- (3:37-4:24)
e|---------------------------------------|-----------------------------|
B|---------------------------------------|-----------------------------|
G|---9-(x9)--8-(x9)--6-(x9)--8-(x9)------|---9-------------------------|
D|---x-------x-------x-------x-----------|---9-------------------------|
A|---7-------6-------4-------6-----------|---7-------------------------|
E|----------------------------------(x5)-|-----------------------------|

That's the end. Have fun.
Song info
I Feel So
Box Car Racer
2001
  • Rock
  • Alternative Rock
  • Hard Rock
Similar songs
Heart Shaped Box - Nirvana
Here Without You - 3 Doors Down
Burn It Down - Linkin Park
Carrot Rope - Pavement
Taste - Ride

Hi! Hope you enjoy backing track experience.
If you want to help us in the development of the project, feel free to donate!