One Night Love Affair - Bryan Adams
00:00 / 00:00
Tabs and lyrics
Tunning: Standard (E A D G B e)
Bryan Adams
One Night Love Affair
Tabbed By Rob.K#


Intro:
B E x 4

Verse 1:
B E
You're the silent type
B E
And you caught my eye
B Ab F# E
but I never thought that I'd be touchin' you
B E
How was I to know
B E
I'd let my feelings go
B Ab F# E
And that I'd be yours before the night was through



Chorus:
D D/#C
One night love affair
Bm G A
trying to make like we don't care
D D/#C B G A
we where both reaching out for something
D D/C#
one night love affair
Bm G A
pretendin' it ain't there
D D/C# B G A
oh - and now we're left with nothing


B E X4

B E
When the morning breaks
B E
we go our seperate ways
B Ab F# E
if the night was made for love it ain't for keeps
B E
But I loose control
B E
as I watch you go
B Ab F# E
all my senses say I'm in this much too deep
now you're outta' reach


Chorus x2


B E x 2

Solo:
B E B E B Ab #F E
E-|----------------|---------------|-------------------|-------------------|
B-|-------4^5--4---|------4^5--4---|------4^5--4-------|-------------------|
G-|----4-6------4--|--4-6-------4--|--4-6--------6-4-4-|--4-6-6--4-6-7-6-4-|
D-|----------------|---------------|-------------------|-6-----------------|
A-|----------------|---------------|-------------------|-------------------|
E-|----------------|---------------|-------------------|-------------------|

B E B E B Ab
E-|-------------|----------------------------------------|
B-|-12-14-16----|-12-14-16------14-14-12-12--14-12-12----|
G-|----------13-|----------13--------------13------------|
D-|-------------|----------------------------------------|
A-|-------------|----------------------------------------|
E-|-------------|----------------------------------------|

#F E
E-|------------------------------16-14--|
B-|-12--------12---------------17-------|
G-|---15-13-11--15-13-11----------------|
D-|---------------------14--------------|
A-|-------------------------------------|
E-|-------------------------------------|

Rob.K#
-Dressed2kill
Tunning: Standard (E A D G B e)
I tried my best to put the two guitar parts in time with each other as I could.
The intro guitar parts are not in timing with each other.
The solo is about 97% correct.


Tuning: Standard Tuning

1st guitar
e|----------------------------------------------------|
B|----------------------------------------------------|
G|4-4---9-9---4-4---9-9-------4-4---9-9---4-4---9-9---|
D|4-4---9-9---4-4---9-9-------4-4---9-9---4-4---9-9---|
A|2-2---7-7---2-2---7-7-------2-2---7-7---2-2---7-7---|
E|------------------------12\-------------------------|

2nd Guitar
e|--2-----2-----2-----2----2-----2---2-----2-----2-----2----2----2--2-|
B|0---0-----0-----0-----0----0-----0---0-----0-----0-----0----0-----4-|
G|------4-----4-----4----------4---------4-----4-----4----------4---4-|
D|--------------------------------------------------------------------|
A|--------------------------------------------------------------------|
E|--------------------------------------------------------------------|

Verse:

1st guitar
e|------------------------------------------------------------|
B|------------------------------------------------------------|
G|4-4---9-9---4-4---9-9---4-4---------------------------------|
D|4-4---9-9---4-4---9-9---4-4--6-6--4------------2------------|
A|2-2---7-7---2-2---7-7---2-2--6-6--4------------2------------|
E|-----------------------------4-4--2------------0------------|

2nd guitar
e|----------------------------------2-----2-------0------0-----|
B|------------------------------------2-----2-------0------0---|
G|--------------------------------------3-----3--------1-----1-|
D|-------------------------------------------------------------|
A|-------------------------------------------------------------|
E|-------------------------------------------------------------|

1st guitar
e|-----------------------------------------------------------------|
B|-----------------------------------------------------------------|
G|4-4---------9-9---------4-4---------9-9-------4-4----------------|
D|4-4---------9-9---------4-4---------9-9-------4-4------------6-6-|
A|2-2---------7-7---------2-2---------7-7-------2-2------------6-6-|
E|-------------------------------------------------------------4-4-|

2nd guitar
e|--2-----2-----2-----2----2-----2---2-----2-----2-----2----2----2---2-|
B|0---0-----0-----0-----0----0-----0---0-----0-----0-----0----0----0---|
G|------4-----4-----4----------4---------4-----4-----4----------4------|
D|---------------------------------------------------------------------|
A|---------------------------------------------------------------------|
E|---------------------------------------------------------------------|

1st guitar
e|-----------------------------------------|
B|-----------------------------------------|
G|-----------------------------------------|
D|4-------------2--------------------------|
A|4-------------2--------------------------|
E|2-------------0--------------------------|

2nd guitar
e|-2-----2--------0-----0----------------|
B|---2-----2--------0-----0--------------|
G|-----3-----3--------1-----1------------|
D|---------------------------------------|
A|---------------------------------------|
E|---------------------------------------|


SOLO:

e|------------------------------------------------------------------|
B|----5-4----------5-4---------5-4----------------------------------|
G|4-6------4---4-6-----4---4-6-----6-4-4----4--6-6---4--6--5hbr-6-4-|
D|----------------------------------------6-------------------------|
A|------------------------------------------------------------------|
E|------------------------------------------------------------------|

e|---------------------------------------------------------------|
B|12--14--16\-9---12--14--16\-9--12fbr--12fbr-12-12--12fbr-12-12-|
G|---------------------------------------------------------------|
D|---------------------------------------------------------------|
A|---------------------------------------------------------------|
E|---------------------------------------------------------------|

e|--------------------------------------12--14fb--14-|
B|12--12-11-9----12-11-9----12-11-9------------------|
G|------------11---------11---------11---------------|
D|---------------------------------------------------|
A|---------------------------------------------------|
E|---------------------------------------------------|

Please rate and Comment

************************************

| / slide up
| \ slide down
| h hammer-on
| p pull-off
| ~ vibrato
| + harmonic
| x Mute note
| b Bend
| pb Pre-bend
| br Bend release
| pbr Pre-bend release
| brb Bend release bend

************************************
Song info
One Night Love Affair
Bryan Adams
2001
  • Rock
  • Pop Rock
Alternative tracks
Similar songs
New York Minute - Don Henley
Running On Faith - Eric Clapton

Hi! Hope you enjoy backing track experience.
If you want to help us in the development of the project, feel free to donate!