Everything Zen - Bush
00:00 / 00:00
Tabs and lyrics
Tunning: Standard (E A D G B e)
Gtr I (E A D G B E) - 'Nigel Pulsford - Rhythm w/dist'
Gtr II (E A D G B E) - 'Gavin Rossdale - Rhythm w/dist'
Gtr III (E A D G B E) - 'Nigel Pulsford - Lead / Rhythm w/dist'

Intro - Free Time
4/4
Gtr III
W W W W W
|----------------:------------:------------:------------:--------:
|----------------:------------:------------:------------:--------:
|----------------:--2s========:==5s========:==9s========:=12s====:
|----------------:--2s========:==5s========:==9s========:=12s====:
|----------------:--2s========:==5s========:==9s========:=12s====:
|----------------:--2s========:==5s========:==9s========:=12s====:
|
| Gtrs I, II
| E E E E +H +W +W +W +W
|----------------:------------:------------:------------:--------:
|----------------:------------:------------:------------:--------:
|----------------:------------:------------:------------:--------:
|----------------:------------:------------:------------:--------:
|-2-2---2-(2)----:-(2)--------:-(2)--------:-(2)--------:-(2)----:
|-0-0-3-0-(0)----:-(0)--------:-(0)--------:-(0)--------:-(0)----:


In Time Q=134
2/4 4/4
~~~~~~~~~~~~~~~~~~~~~~~~~
Q E E +Q. E +Q Q
|-------------|-----------------------||
|-------------|---------12-(12)---12--||
|-15s==17\-12-|-(12)------------------||
|-15s==17\----|-----------------------||
|-15s==17\----|-----------------------||
|-15s==17\----|-----------------------||
|
| +Q. E +E Q E +E E Q
|-------------|-----------------------||
|-------------|-----------------------||
|-----------7-|--(7)-7---5--(5)-5--5--||
|-----------7-|--(7)-7---5--(5)-5--5--||
|-(2)-------5-|--(5)-5---3--(3)-3--3--||
|-(0)---------|-----------------------||


~~~~~~~~~~~~~~~~~~~~~~~~~~~~~~~~~~~~~
E Q. Q. E +Q Q +E E +Q
|-----------------------|----------------------------|
|-12-12--------------12-|-(12)---12---(12)-12-(12)S==|
|------------12---------|----------------------------|
|-----------------------|----------------------------|
|-----------------------|----------------------------|
|-----------------------|----------------------------|
|
| E E E E +E E E E +E Q E +E E Q
|-----------------------|----------------------------|
|-----------------------|----------------------------|
|---------------------7-|--(7)-7----5--(5)--5---5----|
|---------------------7-|--(7)-7----5--(5)--5---5----|
|--2--2----2-(2)-2-2--5-|--(5)-5----3--(3)--3---3----|
|--0--0--3-0-(0)-0-0----|----------------------------|
|-Rhy Fig 1 end Rhy Fig 1-|

w/Rhy Fig 1 x2
~~~~~~~~~~~~~~~ ~~~~~~~~~ ~~~~~~~~~~~~~~~
Q. E +E E E E +E E E a E +Q. E
|--------------------------|------------------------------|
|-17------17-(17)-17-17-15-|-(15)-15-15-------------------|
|--------------------------|------------11s16-(16)-----15-|
|--------------------------|------------11s16-(16)--------|
|--------------------------|------------------------------|
|--------------------------|------------------------------|


~~~~~~~~~~~~~~~~~~~~~~~~~~~~~~~~~~~~~
+E Q E +E Q E +E Q E +Q +E E
|---------------------------|-----------------------------||
|------15-----------14------|------13---------------------||
|-(15)------14-(14)------13-|-(13)-----12-(12)---(12)s11s=||
|---------------------------|-----------------------------||
|---------------------------|-----------------------------||
|---------------------------|-----------------------------||


Verse 1
E5
Gtrs II, III
W +W +W W
| | |
/ / /

Gtr I
W +W W W
|-----------|-------------|-----------|------|
|-----------|-------------|-----------|------|
|-12--------|-(12)--------|-----------|------|
|-----------|-------------|-----------|------|
|-----------|-------------|-----------|------|
|-----------|-------------|-----------|------|


W W W Q E E +H
|----------|----------|----------|------------------|
|----------|----------|----------|------12-(12)\----|
|----------|----------|----------|------12-(12)\----|
|----------|----------|----------|------------------|
|----------|----------|----------|------------------|
|----------|----------|----------|------------------|

w/Rhy Fig 1 x4
Gtr III
E E E E +E E E E +E Q E +E E Q
||--------------------|-------------------|
||o-------------------|-------------------|
||--9-9-9-9-(9)-9-9-7-|-(7)-7--5-(5)-5-5--|
||--9-9-9-9-(9)-9-9-7-|-(7)-7--5-(5)-5-5--|
||o-7-7-7-7-(7)-7-7-5-|-(5)-5--3-(3)-3-3--|
||--------------------|-------------------|
|-Rhy Fig 2

E E E E +E E E E +E Q E +E E Q
|--------------------|---------------------------||
|--------------------|--------------------------o||
|-9-9-9-9-(9)-9-9-12-|-(12)-12--11-(11)-11-11----||
|-9-9-9-9-(9)-9-9-12-|-(12)-12--11-(11)-11-11----||
|-7-7-7-7-(7)-7-7-10-|-(10)-10---9--(9)--9--9---o||
|--------------------|---------------------------||
end Rhy Fig 2-|


Chorus
$
Q Q E E E E +E E Q E E Q
||----------------|------------------|
||o---------------|------------------|
||----------------|------------------|
||--7--7--7-5---7-|-(7)-7-7--7-5-----|
||o---------------|--------------7\--|
||----------------|------------------|
||-Rhy Fig 3A
|
| Q Q E E E E +E E Q E E Q
||----------------|------------------|
||o---------------|------------------|
||----------------|------------------|
||--7--7--7-7-x-3-|-(3)-3-3--3-3-3---|
||o-7--7--7-7-x-3-|-(3)-3-3--3-3-3---|
||--5--5--5-5-x-1-|-(1)-1-1--1-1-1---|
|-Rhy Fig 3

To Coda
E Q E Q E E +E E E E E E Q 3x
|----------------------------|-----------------------------||
|----------------------------|----------------------------o||
|----------------------------|-----------------------------||
|----------------------------|-----------------------------||
|----------------------------|----------------------------o||
|-0-3b3.5--0-3b3.5--0-3b3.5==|=(3)r-0-3b3.5-0-3b3.5-0-3----||
| end Rhy Fig 3A-|
|
| E Q E Q E E +E E E E E E Q 3x
|----------------------------|-----------------------------||
|----------------------------|----------------------------o||
|----------------------------|-----------------------------||
|----------------------------|-----------------------------||
|----------------------------|----------------------------o||
|-0-3b3.5--0-3b3.5--0-3b3.5==|=(3)r-0-3b3.5-0-3b3.5-0-3----||
end Rhy Fig 3-|

w/Rhy Fig 1 x2
~~~~~~~~~~~~~~~~~~~~~~~~~~~~~~~~~~~~~~~~~~~~~~~~~
Q. E +Q Q +E Q. Q +Q
|------------------------|-------------------------|
|-------------------12---|-(12)--------12----(12)S=|
|-12------12-(12)--------|------12-----------------|
|------------------------|-------------------------|
|------------------------|-------------------------|
|------------------------|-------------------------|


~~~~~~~~~~~~
Q. E +Q E E +H. +Q
|-------------------------|------------------------|
|-17------17-(17)---17-15-|-(15)------------(15)s==|
|-------------------------|------------------------|
|-------------------------|------------------------|
|-------------------------|------------------------|
|-------------------------|------------------------|


Verse 2
E5
Gtrs I, II
W +W +W W
| | |
/ / /

Gtr III Gtr II
W +W +W H Q E E
|-----------|-------------|-------------|-------------|
|-12--------|-(12)--------|-(12)--------|-------------|
|-----------|-------------|-------------|-------------|
|-----------|-------------|-------------|-------------|
|-----------|-------------|-------------|-------------|
|-----------|-------------|-------------|-----------0-|


Gtr III
|----3----|
+W +H.. E +W Q Q Q E E Q
|------------|--------------|------------|------------------------|
|------------|--------------|------------|------------------------|
|------------|--------------|------------|------2pb3==2r---9s15\--|
|------------|--------------|------------|-----------------9s15\--|
|------------|--------------|------------|------------------------|
|-(0)--------|-(0)--------0-|-(0)--------|-(0)--------------------|
+W


Rhy Fig 1 x4 + Rhy Fig 2 x2 ->D.S. al Coda


&
Gtrs I, II
Rhy Fig 3 + 3A (1st 2 bars of both only)


E Q E Q E E
||-----------------------------|
||o----------------------------|
||-----------------------------|
||-----------------------------|
||o----------------------------|
||--0-3b3.5--0-3b3.5--0-3b3.5==|


Gtr III
+E E Q Q Q 3x E Q E Q E E +E E E E H
|----------------------||----------------------------|-----------------------||
|---------------------o||----------------------------|-----------------3S====||
|----------------------||----------------------------|-----------------3S====||
|----------------------||----------------------------|-----------------3S====||
|---------------------o||----------------------------|-----------------------||
|-(3)r-0-3b3.5--0------||-0-3b3.5--0-3b3.5--0-3b3.5==|=(3)r-0-3b3.5-0--------||


Bridge
D5 Bb5 G5 C5 D5 Bb5 G5
Gtrs I, II
Q Q E Q E +E E E E +E E Q Q Q E Q E
| | | | | | | | | | | | | | | | |
/ / / / / / / / / / / / / / / / /

Gtr III
~~
Q. +E E Q E +E E E E +E E Q Q Q E Q E
|-------------------|-----------------------|---------------|
|-7-----(7)S3-3S=12-|-(12)-12-12S5-(5)-5-5S=|=7--7S=3-3S=12-|
|-7-----(7)S3-3S=12-|-(12)-12-12S5-(5)-5-5S=|=7--7S=3-3S=12-|
|-7-----(7)S3-3S=12-|-(12)-12-12S5-(5)-5-5S=|=7--7S=3-3S=12-|
|-------------------|-----------------------|---------------|
|-------------------|-----------------------|---------------|


G5X D5 Bb5 G5 C5
+E E Q E E Q Q Q E Q E +E E E E +E E Q
| | | | | | | | | | | | | | | | | |
/ / / / / / / / / / / / / / / / / /

~~~~
+H. +Q Q Q E Q E +E E E E +E E Q
|---------------------|---------------|------------------------|
|-(12)----------(12)S=|=7--7S=3-3S=12-|-(12)-12-12S5-(5)-5-5S==|
|-(12)----------(12)S=|=7--7S=3-3S=12-|-(12)-12-12S5-(5)-5-5S==|
|-(12)----------(12)S=|=7--7S=3-3S=12-|-(12)-12-12S5-(5)-5-5S==|
|---------------------|---------------|------------------------|
|---------------------|---------------|------------------------|


D5 Bb5 G5 Bb5 G5 Bb5
Q Q E Q E +E Q E +E Q E +E Q E +E E Q
| | | | | | | | | | | | | | | | |
/ / / / / / / / / / / / / / / / /

~~~~~~~~~~~~~~ ~~~~~~~~~~~~
Q Q E E Q +E Q E +Q. E +E Q E +H
|----------------|----------------------|---------------------||
|-7--7S=3-3S12---|-(12)-12--3-(3)S===12-|-(12)-12--3-(3)------||
|-7--7S=3-3S12---|-(12)-12--3-(3)S===12-|-(12)-12--3-(3)------||
|-7--7S=3-3S12---|-(12)-12--3-(3)S===12-|-(12)-12--3-(3)------||
|----------------|----------------------|---------------------||
|----------------|----------------------|---------------------||


Guitar Solo
Gtr III
~~
a E E E a E +E Q. a E E E E +Q Q
|-----------------------|----------------------|
|-----------------------|----------------------|
|-3s4-0-4-4s5-(5)-3-----|-3s=4--4s5-0-(0)---0--|
|-----------------------|----------------------|
|-----------------------|----------------------|
|-----------------------|----------------------|
|
| Gtr II
| E E E E E Q E +E Q E +E E Q
|-----------------------|----------------------|
|-----------------------|----------------------|
|---9-9-9---9--9--9---7-|---(7)-7---5-(5)-5-5--|
|-----------------------|----------------------|
|---7-7-7---7--7--7---5-|---(5)-5---3-(3)-3-3--|
|-----------------------|----------------------|
|
| Gtr I
| E E E E E Q E +E Q E +E E Q
|-----------------------|----------------------|
|-----------------------|----------------------|
|---9-9-9---9--9--9---7-|---(7)-7---5-(5)-5-5--|
|-----------------------|----------------------|
|---7-7-7---7--7--7---5-|---(5)-5---3-(3)-3-3--|
|-----------------------|----------------------|


~~~~~~~~~~~~~~~ ~~~~~~~~~~~~~~~~~~~~~~~~
a Q. E +H a Q. E +Q Q
|---------------------------|-------------------------------|
|---------------------------|-------------------------------|
|-4s7-------7--(7)----------|-7---9---------9--(9)-----9----|
|---------------------------|-------------------------------|
|---------------------------|-------------------------------|
|---------------------------|-------------------------------|
|
| E E E E E Q E +E Q E +E E Q
|---------------------------|-------------------------------|
|---------------------------|-------------------------------|
|---9--9-9--9---9---9-----7-|----(7)--7-----5--(5)--5--5----|
|---------------------------|-------------------------------|
|---7--7-7--7---7---7-----5-|----(5)--5-----3--(3)--3--3----|
|---------------------------|-------------------------------|
|
| E E E E +E E E E +E E E E +E E Q
|---------------------------|-------------------------------|
|---------------------------|-------------------------------|
|---9--9-9-11-(11)-11-11-12-|---(12)-12-12-14-(14)-14-14\---|
|---------------------------|-------------------------------|
|---7--7-7--9--(9)--9--9-10-|---(10)-10-10-12-(12)-12-12\---|
|---------------------------|-------------------------------|


~~~~~~~~~~~~
E E E E E E E E Q E E a H
|-15---14-12---------------|-------------------------------|
|-----------------15----12-|--10-----10-10-10s=12----------|
|-----------------------12-|--10---------------------------|
|--------------------------|-------------------------------|
|--------------------------|-------------------------------|
|--------------------------|-------------------------------|
|
| E E E E +E E E E +E E E E +E E Q
|--------------------------|-------------------------------|
|--------------------------|-------------------------------|
|--9-9--9-11-(11)-11-11-12-|-(12)-12-12-14----(14)-14-14\--|
|--------------------------|-------------------------------|
|--7-7--7--9--(9)--9--9-10-|-(10)-10-10-12----(12)-12-12\--|
|--------------------------|-------------------------------|
|
| E E E E +E E E E +E E E E +E E Q
|--------------------------|-------------------------------|
|--------------------------|-------------------------------|
|--9-9--9-11-(11)-11-11-12-|-(12)-12-12-14----(14)-14-14\--|
|--------------------------|-------------------------------|
|--7-7--7--9--(9)--9--9-10-|-(10)-10-10-12----(12)-12-12\--|
|--------------------------|-------------------------------|


~~~~~~ TP TP TP
+S E. Q Q E E
|--------------------------------|
|-(12)-12s==11s====10-----10-10--|
|--------------------------------|
|--------------------------------|
|--------------------------------|
|--------------------------------|
|
| E E E E +E E E E
|--------------------------------|
|--------------------------------|
|---9-----9--9-11-(11)-11-11-12--|
|--------------------------------|
|---7-----7--7--9--(9)--9--9-10--|
|--------------------------------|
|
| E E E E E Q E
|--------------------------------|
|--------------------------------|
|---9-----9--9--9---9---9-----7--|
|--------------------------------|
|---7-----7--7--7---7---7-----5--|
|--------------------------------|


~~~
E. S +E E E Q. W
|---------------------------------||-------------|
|--10-----10-(10)-10\-------------||-------------|
|-----------------------9s=12-----||---5s========|
|---------------------------------||---5s========|
|---------------------------------||---5s========|
|---------------------------------||-------------|
|
| +E E E E +H +W
|---------------------------------||-------------|
|---------------------------------||-------------|
|-(12)-12-----12--14--(14)--------||-(14)--------|
|---------------------------------||-------------|
|-(10)-10-----10--12--(12)--------||-(12)--------|
|---------------------------------||-------------|
|
| +E Q E +E E Q +W
|---------------------------------||-------------|
|---------------------------------||-------------|
|--(7)--7----------5---(5)--5--5--||--(5)--------|
|---------------------------------||-------------|
|--(5)--5----------3---(3)--3--3--||--(3)--------|
|---------------------------------||-------------|


~~~
W H. Q
|--------------|-----------------------|
|--------------|-----------------------|
|--10s=========|=15----------------6---|
|--10s=========|=15----------------6---|
|--10s=========|=15----------------6---|
|--------------|-----------------------|
|
| PM-----------------|
| +H. Q E E E E E E E E
|--------------|-----------------------|
|--------------|-----------------------|
|-(14)---------|-----------------------|
|--------------|--9--9-9-10-10-10-10-9-|
|-(12)---------|-----------------------|
|--------------|-----------------------|
| |-Riff A end Riff A-|
| +W
|--------------|
|--------------|
|--(5)---------|
|--------------|
|--(3)---------|
|--------------|

w/Riff A x9
Gtr III
+W W
|-----------------------|---------------------|
|-----------------------|---------------------|
|-(6)s==================|=9s==================|
|-(6)s==================|=9s==================|
|-(6)s==================|=9s==================|
|-----------------------|---------------------|


H. Q W W
|----------------------|---------------------|---------------------|
|----------------------|---------------------|---------------------|
|-12s=============15---|---------------------|---------------------|
|-12s=============15---|---------------------|---------------------|
|-12s=============15---|---------------------|---------------------|
|----------------------|---------------------|---------------------|


PM PM
W E E E E H
|---------------------|---------------------|
|---------------------|---------------------|
|---------------------|---------------------|
|---------------------|---------------------|
|---------------------|---------------------|
|---------------------|---0----0------------|



E +E +E E +Q +E E Q E E H
|-------------------------------|--------------------------||
|-------------------------------|--------------------------||
|-------------------------------|--------------------------||
|-------------------------------|--------x---x--x----------||
|-9b10==(9)r(9)--7-(7)----(7)s5-|-(5)---(5)s=3-(3)---------||
|-------------------------------|--------------------------||
+Q +E E +H

Verse 3
Gtr II
Riff A x 6

w/Riff A x4
Gtr III
|---3---| |----3----| |---3---| |----3----|
Q Q Q Q Q Q Q Q Q Q Q Q
|-----------------------------|-----------------------------|
|-----------------------------|-----------------------------|
|-7---7---7-----7----7----7---|-7---7---7-----7----7----7---|
|-----------------------------|-----------------------------|
|-----------------------------|-----------------------------|
|-----------------------------|-----------------------------|


|---3---| |----3----|
Q Q Q Q Q Q
|------------------------------|
|------------------------------|
|-7---7---7-----7----7----7----|
|------------------------------|
|------------------------------|
|------------------------------|



W
|---3---| |----3----|
Q Q Q Q Q Q
|-----------------------------|
|-----------------------------|
|-7---7---7-----7----7----7---|
|-----------------------------|
|-----------------------------|
|-----------------------------|


D5 C5
Gtr I
H Q E E +E Q E +H
| | | | |
/ / / / /

|---3---| |---3----| |-3--|
Q Q Q Q Q Q Q H H
|----------------------------|-----------------------||
|----------------------------|-----------------------||
|-7---7---7-----7----7---7---|--7----7----7/---------||
|----------------------------|-----------------------||
|----------------------------|-----------------------||
|----------------------------|-----------------------||
|
|-----------------|
| E E E E E E E E +Q. E +Q Q
|----------------------------|-----------------------||
|----------------------------|-----------------------||
|--------------------------7-|-(7)-----5-(5)---------||
|-9-9---9---10-10-10-------7-|-(7)-----5-(5)---------||
|--------------------------5-|-(5)-----3-(3)---------||
|----------------------------|----------------/17\---||


Chorus
Rhy Fig 3 + 3A x4 (both)


Outro
Gtr I
PM
E E E E +E E E E E E E E +E E Q Q Q E E E E +E E Q E E Q 4x
|-------------------|------------------||----------------|------------------||
|-------------------|------------------||o---------------|-----------------o||
|-------------------|------------------||----------------|------------------||
|-7-7-7-7-(7)---7-3-|-3-3-3-3-(3)-3-3--||--7--7--7-7-x-3-|-(3)-3-3--3-3-3---||
|-7-7-7-7-(7)---7-3-|-3-3-3-3-(3)-3-3--||o-7--7--7-7-x-3-|-(3)-3-3--3-3-3--o||
|-------------5---1-|-1-1-1-1-(1)-1-1--||--5--5--5-5-x-1-|-(1)-1-1--1-1-1---||


Gtrs I, II
E Q E Q E E +E E Q E Q E
|----------------------------|--------------------------|
|----------------------------|--------------------------|
|----------------------------|--------------------------|
|----------------------------|--------------------------|
|----------------------------|--------------------------|
|-0-3b3.5--0-3b3.5--0-3b3.5==|=(3)r-0-3b3.5--0-3b3.5--0-|


Q E E +E E Q E Q E E E Q Q +Q H
|-------------------------------|-----------------------|---------------*|
|-------------------------------|-----------------------|---------------*|
|-------------------------------|-----------------------|---------------*|
|-------------------------------|-----------------------|-7--(7)\-------*|
|-------------------------------|-----------------------|-7--(7)\-------*|
|-3b3.5--0-3b3.5==(3)r-0-3b3.5--|-0-3b3.5--0-3b3.5-0-3--|-5--(5)\-------*|
Tunning: Standard (E A D G B e)
guitar parts:
------------
verse:
it easy
E |---------------------------------------|
B |---------------------------------------|
G |----------------------7-x--5----5-5-5--|
D |--2--2-----2--2-2-2---7-x--5----5-5-5--|
A |--2--2--2--2--2-2-2---5-x--3----3-3-3--|
E |--0--0--3--0--0-0-0--------------------|

chorus:
E |---------------------------------------------------------------------|
B |---------------------------------------------------------------------|
G |---------------------------------------------------------------------|
D |--7--7---7--7--x--3--3--3--3--3---5--5--5--5--5--5--5--5--5-5--5--5--|
A |--7--7---7--7--x--3--3--3--3--3---5--5--5--5--5--5--5--5--5-5--5--5--|
E |--5--5---5--5--x--1--1--1--1--1---0--3--0--3--0--3--0--3--0-3--0--3--|

"i don't believe that elveis is dead" part he plays
a D-Bb-G-C progression (just repeat it a couple of times)

D |-----| Bb |-----| G |-----| C |-----|
|-----| |-----| |-----| |-----|
|--5--| |--3--| |-----| |--5--|
|--5--| |--3--| |--5--| |--5--|
|--3--| |--1--| |--5--| |--3--|
|-----| |-----| |--3--| |-----|
*********************************************


this is the slide part in the begining of the song, you have
to go crazy and have fun with it

remember to use a slide
E |------this part goes on for a while so bear with it---------------|
B |------------------------------------------------------------------|
G |--2/////////////5///////////9//////////12////////15///////17///---|
D |--2/////////////5///////////9//////////12////////15///////17///---|
A |--2/////////////5///////////9//////////12////////15///////17///---|
E |--2/////////////5///////////9//////////12////////15///////17///---|

now you use the wammy bar
E |------------------------------------------------------------------|
B |------------12v----12v----12---12v------------12v----12v-12/17v---|
G |--12v---------------------------------12v-------------------------|
D |------------------------------------------------------------------|
A |------------------------------------------------------------------|
E |------------------------------------------------------------------|

E |------------------------------------------------------------------|
B |--17v------17-----17----15v-------15-----15-------------------15v-|
G |-----------------------------------------------16v----------------|
D |-----------------------------------------------16v----------------|
A |------------------------------------------------------------------|
E |------------------------------------------------------------------|

E |--------------------------------------------------------------------|
B |--15v------------14v----------------13v-----------------------------|
G |----------14v-------------13v-------------------12v-----1211/12-----|
D |--------------------------------------------------------------------|
A |--------------------------------------------------------------------|
E |--------------------------------------------------------------------|

that is the first little solo
**********************************************************************

after the lines "asshole brother" there is a little fill
use the slide for it
E |------------------|
B |--12////////////--|
G |--12////////////--|
D |------------------|
A |------------------|
E |------------------|
***********************************************************************
this part is also a slide part so work with it and you will get the
hang of it, just go fucking nuts

E |-----------------------------------------------------------|
B |-----------------------------------------------------------|
G |-////7v----\\\3-3/////12--12--12\\5----5----5////7---------|
D |-////7v----\\\3-3/////12--12--12\\5----5----5////7---------|cont.
A |-////7v----\\\3-3/////12--12--12\\5----5----5////7---------|below
E |-////7v----\\\3-3/////12--12--12\\5----5----5////7---------|

E |----------------------------------------------------------------|
B |----------------------------------------------------------------|
G |--7\\3---3/////12v--------------\\7----7\\3--3////12------------|
D |--7\\3---3/////12v--------------\\7----7\\3--3////12------------|
A |--7\\3---3/////12v--------------\\7----7\\3--3////12------------|
E |--7\\3---3/////12v--------------\\7----7\\3--3////12------------|

E |--------------------------------------------------------------------|
B |--------------------------------------------------------------------|
G |-12--12\\5--5////7---7\\3--3////12----12---3/////12--12v--3---------|
D |-12--12\\5--5////7---7\\3--3////12----12---3/////12--12v--3---------|
A |-12--12\\5--5////7---7\\3--3////12----12---3/////12--12v--3---------|
E |-12--12\\5--5////7---7\\3--3////12----12---3/////12--12v--3---------|

then it goes into the solo

E |-----------------------------------------------------------------|
B |-----------------------------------------------------------------|
G |--4--0---4/5-----3v-----/4----4/5----0---0---6/7v----7v----7h9v--|
D |-----------------------------------------------------------------|
A |-----------------------------------------------------------------|
E |-----------------------------------------------------------------|

E |-------------15---14---12------------------------------------------|
B |-----------------------------15----12---10----10h12v--121110-------|
G |--9v---9v----------------------------------------------------------|
D |-------------------------------------------------------------------|
A |-------------------------------------------------------------------|
E |-------------------------------------------------------------------|

E |----------------------------------------------------------------|
B |--10--10-----10---10---10---------------------------------------|
G |--------------------------9/12v---5/////10/////15v----6/////9---|
D |----------------------------------5/////10/////15v----6/////9---|
A |----------------------------------5/////10/////15v----6/////9---|
E |----------------------------------5/////10/////15v----6/////9---|

E |----------------|
B |----------------|
G |--////12////15--|
D |--////12////15--|
A |--////12////15--|
E |--////12////15--|
Song info
Everything Zen
Bush
2001
  • Rock
  • Alternative Rock
  • Grunge
Alternative tracks
Similar songs
The Diamond Sea - Sonic Youth
Somebody Told Me - The Killers
Keep Away - Godsmack
Le Vent Nous Portera - Noir Désir
Zebra - John Butler

Hi! Hope you enjoy backing track experience.
If you want to help us in the development of the project, feel free to donate!