Spain - Chick Corea
00:00 / 00:00
Tabs and lyrics
Tunning: Standard (E A D G B e)
Tab by Adrian Scholze
Check out Spain on www.myspace.com/adrianscholze

[A-Part]

Em11 F#sus F#
e|--------------------5--5--5---------------|
b|--7-----------------5--5--5---2--2--2~~---|
g|-7-7-9-7--7-6-6-4---4--4--4---4--4--3~~---|
d|--------9----7---5--4--4--4---4--4--4~~---|
a|------------------------------------------|
e|------------------------------------------|

[B-part]

Gma7 F#7 Em7 A7 Dma7 Gma7 C#7 F#7 Bm B7
e|-----------------------------------------------------------------|
b|-----------------------------------------------------------------|
g|--------6-7-9-7-6----------6-7-9-7-9--11--9-7-6-7-9-7-6-4h6-4/8~~|
d|-----7-9----------------7-9--------------------------------------|
a|-9-10---------------9-10-----------------------------------------|
e|-----------------------------------------------------------------|


[C-Part]

e|----------------------------------------------------------------------
b|----8-7------------------5-5-8\7-------5------------------------------
g|--9-----7-9--7\6--------7-------7-4-7-4-6-4---4-6---------------------
d|-9-------9--7----7-9-5-5-------------------4-4---6/8-6-4--4-6-8\7-4---
a|--------------------------------------------7------------4-4-4--------
e|----------------------------------------------------------------------

B7
e|---------------|
b|-7-7-5---------|
g|------7-4~~----|
d|---------------|
a|---------------|
e|---------------|

[A-Part]
[B-part]
[C-part]

[D-part]

Gma7 F#7 Em7 A7 Dma7 Gma7 C#7 F#7 Bm B7
e|-------------------------------------------------------------------------|
b|----------------------7-------------------7-----------------------------7|
g|------6-7-6---7-6------9-7-------6-7-9-7-9-------9-7-6-7-9--7-6-6\4--8-9-|
d|-9~~-9------9----8~~------9---7-9----------------------------------------|
a|-------------------------------------------------------------------------|
e|-------------------------------------------------------------------------|

Em7 A7 Dma7 Gma7 C#7 F#7 Bm B7
e|-------------------------------------------------|
b|----------------------7--------------------------|
g|---------6-7-9-7-9------9-7-6-7-9-7-6-4h6\4-/8---|
d|-----7-9-----------------------------------------|
a|-9-10--------------------------------------------|
e|-------------------------------------------------|


[C-part]

[Impro-Part]

| Gma7 | Gma7 | F# | F# | Em7 | A7 |

| Dma7 | Gma7 | C#7 | F#7 | Bm | B7 |


************************************

| h Hammer-on
| / Slide up
| \ Slide down
| ~ Vibrato

************************************

Tab By Adrian Scholze
Song info
Spain
Chick Corea
2001
  • Funk / Soul
  • Jazz
  • Funk
  • Fusion
Alternative tracks
Similar songs
Love Rollercoaster - Ohio Players
The Thrill Is Gone - B.B. King
Music For My Mother - Funkadelic
Attention - Charlie Puth
Fame - David Bowie

Hi! Hope you enjoy backing track experience.
If you want to help us in the development of the project, feel free to donate!