Are You Dead Yet - Children of Bodom
00:00 / 00:00
Tabs and lyrics
Tunning: Drop C (C G C F A D)
Didnt see a whole lot of Are you dead yet ANYWHERE so i decided to put it out here.. what a great song. :)


E E Q E E Q E E Q E E Q
D||-------------------------|-------------------------|
A||-------------------------|-------------------------|
F||-------------------------|-------------------------|
C||--------7----7------7----|--------7----7------7----|
G||--0--0--5----5s--6--5----|--0--0--5----5s--8--5----|
C||--0--0-------------------|--0--0-------------------|


PM PM PM PM PM PM PM PM PM
E E Q E E E E E E E E E E E E E E Q E E Q
-------------------------|--------------------------|-------------------------|
-------------------------|--------------------------|-------------------------|
-------------------------|--------------------------|-------------------------|
--------7----------8-----|--------8-----------8-----|--------7----7------7----|
--0--0--5----5--7--8--7--|--5--7--8--7--5--7--8--7--|--0--0--5----5s--6--5----|
--0--0-------------------|--------------------------|--0--0-------------------|


E E Q E E Q E E Q E E E E E E E E E E E E
----------------------------|--------------------------------------------------|
----------------------------|--------------------------------------------------|
----------------------------|--------------------------------------------------|
--------7----7--------------|--------7----7------------------------------------|
--0--0--5----5s--6--8~----|--0--0--5----5s--6--------------8-----------------|
--0--0----------------------|--0--0--------------0--5--7--8-----8--3--6--5--3--|


E E E E Q Q E E Q E E Q E E Q E E Q
------------------------|-------------------------|-------------------------|
------------------------|-------------------------|-------------------------|
------------------------|-------------------------|-------------------------|
--------------3----5----|--------7----7------7----|--------7----7------7----|
--0-----0-----1----3----|--0--0--5----5s--6--5----|--0--0--5----5s--8--5----|
--0-----0---------------|--0--0-------------------|--0--0-------------------|


PM PM PM PM PM PM PM PM PM
E E Q E E E E E E E E E E E E E E Q E E Q
-------------------------|--------------------------|-------------------------|
-------------------------|--------------------------|-------------------------|
-------------------------|--------------------------|-------------------------|
--------7----------8-----|--------8-----------8-----|--------7----7------7----|
--0--0--5----5--7--8--7--|--5--7--8--7--5--7--8--7--|--0--0--5----5s--6--5----|
--0--0-------------------|--------------------------|--0--0-------------------|


E E Q E E Q E E Q E E E E E E E E E E E E
----------------------------|--------------------------------------------------|
----------------------------|--------------------------------------------------|
----------------------------|--------------------------------------------------|
--------7----7--------------|--------7-----------------------------------------|
--0--0--5----5s--6--8~----|--0--0--5----5s--6--------------8-----------------|
--0--0----------------------|--0--0--------------0--5--7--8-----8--3--5--6--5--|


PM PM PM
E E Q Q Q E E Q H E E Q E E E E
------------------------|-----------------------|-------------------------|
------------------------|-----------------------|-------------------------|
------------------------|-----------------------|-------------------------|
--------7----7-----7----|--------7--------------|--------7----------8-----|
--0--0--5----5b----5----|--0--0--5----5b--------|--0--0--5----5--6--8--6--|
--0--0------------------|--0--0-----------------|--0--0-------------------|


PM PM PM PM PM PM
E E E E E E E E E E Q Q Q E E Q H
--------------------------|------------------------|-----------------------|
--------------------------|------------------------|-----------------------|
--------------------------|------------------------|-----------------------|
--------8-----------8-----|--------7----7-----7----|--------7--------------|
--5--6--8--6--5--6--8--6--|--0--0--5----5b----5----|--0--0--5----5b--------|
--------------------------|--0--0------------------|--0--0-----------------|


PM PM PM PM PM PM PM PM PM
E E Q E E E E E E E E E E E E
-------------------------|--------------------------|
-------------------------|--------------------------|
-------------------------|--------------------------|
--------7----------8-----|--------8-----------8-----|
--0--0--5----5--6--8--6--|--5--6--8--6--5--6--8--6--|
--0--0-------------------|--------------------------|


E E E E E E E E E E E E E E Q
------------------------------------|----------------------------------|
-------------(18)-------------(18)--|-------------(18)------18---------|
--------19b--------------19b--------|--------19b--------17------19b----|
------------------------------------|----------------------------------|
--0--0-------------0--0-------------|--0--0----------------------------|
--0--0-------------0--0-------------|--0--0----------------------------|


E E E E E E E E E E E E E E E E
------------------------------------|-----------------------------------|
-------------(18)-------------(18)--|-------------(18)------------------|
--------19b--------------19b--------|--------19b--------17------17--17--|
------------------------------------|-----------------------17----------|
--0--0-------------0--0-------------|--0--0-----------------------------|
--0--0-------------0--0-------------|--0--0-----------------------------|


E E E E E E E E E E E E E E Q
------------------------------------|----------------------------------|
-------------(18)-------------(18)--|-------------(18)------18---------|
--------19b--------------19b--------|--------19b--------17------19b----|
------------------------------------|----------------------------------|
--0--0-------------0--0-------------|--0--0----------------------------|
--0--0-------------0--0-------------|--0--0----------------------------|


E E E E E E E E E E E E E E E E
------------------------------------|-----------------------------------|
-------------(18)-------------(18)--|-------------(18)------------------|
--------19b--------------19b--------|--------19b--------17------17--17--|
------------------------------------|-----------------------17----------|
--0--0-------------0--0-------------|--0--0-----------------------------|
--0--0-------------0--0-------------|--0--0-----------------------------|


E E E E E E E E E E E E E E Q
------------------------------------|----------------------------------|
-------------(18)-------------(18)--|-------------(18)------18---------|
--------19b--------------19b--------|--------19b--------17------19b----|
------------------------------------|----------------------------------|
--0--0-------------0--0-------------|--0--0----------------------------|
--0--0-------------0--0-------------|--0--0----------------------------|


E E E E E E E E E E E E E E E E
------------------------------------|-----------------------------------|
-------------(18)-------------(18)--|-------------(18)------------------|
--------19b--------------19b--------|--------19b--------17------17--17--|
------------------------------------|-----------------------17----------|
--0--0-------------0--0-------------|--0--0-----------------------------|
--0--0-------------0--0-------------|--0--0-----------------------------|


E E Q E E Q E E Q Q Q E E E E E E E E
------------------------|-----------------------|--------------------------|
------------------------|-----------------------|--------------------------|
------------------------|-----------------------|--------------------------|
------------------------|-----------------------|--------------------------|
--0--0-------0--0-------|--0--0-----------------|--0--0--0-----0--0--0-----|
--0--0-------0--0-------|--0--0-----------------|--0--0--0-----0--0--0-----|


E E E Q Q E E E Q E E Q E E Q Q Q
------------------------|------------------------|-----------------------|
------------------------|------------------------|-----------------------|
------------------------|------------------------|-----------------------|
------------------------|--3--3-------3--3-------|--3--3-----------------|
--0--0--0---------------|--1--1-------1--1-------|--1--1-----------------|
--0--0--0---------------|------------------------|-----------------------|


E E E E E E E E E E E H E
--------------------------|-----------------------|
--------------------------|-----------------------|
--------------------------|-----------------------|
--3--3--3-----3--3--3-----|--3--3--3--------------|
--1--1--1-----1--1--1-----|--1--1--1--------------|
--------------------------|-----------------------|


E E E E E E E E E E E E E E Q
------------------------------------|----------------------------------|
-------------(18)-------------(18)--|-------------(18)------18---------|
--------19b--------------19b--------|--------19b--------17------19b----|
------------------------------------|----------------------------------|
--0--0-------------0--0-------------|--0--0----------------------------|
--0--0-------------0--0-------------|--0--0----------------------------|


E E E E E E E E E E E E E E E E
------------------------------------|-----------------------------------|
-------------(18)-------------(18)--|-------------(18)------------------|
--------19b--------------19b--------|--------19b--------17------17--17--|
------------------------------------|-----------------------17----------|
--0--0-------------0--0-------------|--0--0-----------------------------|
--0--0-------------0--0-------------|--0--0-----------------------------|


E E Q E E Q E E Q Q Q S S S S Q S S S S Q
------------------------|-----------------------|----------------------------|
------------------------|-----------------------|----------------------------|
------------------------|-----------------------|----------------------------|
------------------------|-----------------------|----------------------------|
--0--0-------0--0-------|--0--0-----------------|--0-0-0-0------0-0-0-0------|
--0--0-------0--0-------|--0--0-----------------|--0-0-0-0------0-0-0-0------|


S S S S H Q E E Q E E Q E E H Q
------------------------|------------------------|----------------------|
------------------------|------------------------|----------------------|
------------------------|------------------------|----------------------|
------------------------|--3--3-------3--3-------|--3--3----------------|
--0-0-0-0---------------|--1--1-------1--1-------|--1--1----------------|
--0-0-0-0---------------|------------------------|----------------------|


S S S S Q S S S S Q S S S S Q S S S S Q
----------------------------|--------------------------------|
----------------------------|--------------------------------|
----------------------------|--------------------------------|
--3-3-3-3------5-5-5-5------|--7-7-7-7------10-10-10-10------|
--1-1-1-1------3-3-3-3------|--5-5-5-5-------8--8--8--8------|
----------------------------|--------------------------------|


E E E E Q Q E E Q E E Q E E Q E E Q
------------------------|-------------------------|-------------------------|
------------------------|-------------------------|-------------------------|
------------------------|-------------------------|-------------------------|
--1--0--1--0--3----5----|--------7----7------7----|--------7----7------7----|
--1--0--1--0--1----3----|--0--0--5----5s--6--5----|--0--0--5----5s--8--5----|
--1--0--1--0------------|--0--0-------------------|--0--0-------------------|


PM PM PM PM PM PM PM PM PM
E E Q E E E E E E E E E E E E E E Q E E Q
-------------------------|--------------------------|-------------------------|
-------------------------|--------------------------|-------------------------|
-------------------------|--------------------------|-------------------------|
--------7----------8-----|--------8-----------8-----|--------7----7------7----|
--0--0--5----5--7--8--7--|--5--7--8--7--5--7--8--7--|--0--0--5----5s--6--5----|
--0--0-------------------|--------------------------|--0--0-------------------|


E E Q E E Q E E Q E E E E
----------------------------|---------------------------|
----------------------------|---------------------------|
----------------------------|---------------------------|
--------7----7--------------|--------7----7------7------|
--0--0--5----5s--6--8~----|--0--0--5----5s--6--5s--6--|
--0--0----------------------|--0--0---------------------|


Q Q Q Q W H H
-----------------------|-------------------|---------------------|
-----------------------|-------------------|---------------------|
-----------------------|-------------------|---------------------|
-----------------------|--7----------------|--10--------5--------|
--5----7----8----10----|--5----------------|---8--------3--------|
--5----7----8----10----|-------------------|---------------------|


W H H W
-------------------|--------------------|-------------------|
-------------------|--------------------|-------------------|
-------------------|--------------------|-------------------|
--8----------------|--3--------3--------|--7----------------|
--6----------------|--1--------3--------|--5----------------|
-------------------|--------------------|-------------------|


H H W H H
----------------------|-------------------|--------------------|
----------------------|-------------------|--------------------|
----------------------|-------------------|--------------------|
--10s--------5--------|--8----------------|--3--------3--------|
---8s--------3--------|--6----------------|--1--------3--------|
----------------------|-------------------|--------------------|


W W W
-------------------|-------------------|-------------------|
-------------------|-------------------|-------------------|
-------------------|-------------------|-------------------|
--1----------------|--7----------------|--0----------------|
--1----------------|--7----------------|--0----------------|
--1----------------|--7----------------|--0----------------|


H H W W
--------------------|-------------------|-------------------|
--------------------|-------------------|-------------------|
-----------5--------|-------------------|-------------------|
--3--------5--------|--1----------------|--7----------------|
--3--------3--------|--1----------------|--7----------------|
--3-----------------|--1----------------|--7----------------|


W E E E Q Q E W
-------------------|---------------------------|-------------------|
-------------------|---------------------------|-------------------|
-------------------|---------------------------|-------------------|
--0----------------|-----------3---------------|--1----------------|
--0----------------|--3--5--0--3----5~-------|--1----------------|
--0----------------|--3--5--0------------------|--1----------------|


W W H H
-------------------|-------------------|--------------------|
-------------------|-------------------|--------------------|
-------------------|-------------------|-----------5--------|
--7----------------|--0----------------|--3--------5--------|
--7----------------|--0----------------|--3--------3--------|
--7----------------|--0----------------|--3-----------------|


W W W
-------------------|-------------------|-------------------|
-------------------|-------------------|-------------------|
-------------------|-------------------|-------------------|
--1----------------|--7----------------|--0----------------|
--1----------------|--7----------------|--0----------------|
--1----------------|--7----------------|--0----------------|


H H E E E E E E E E
--------------------|-------------------------------------|
--------------------|-------------(18)-------------(18)\--|
-----------5--------|--------19b--------------19b---------|
--3--------5--------|-------------------------------------|
--3--------3--------|--0--0-------------0--0--------------|
--3-----------------|--0--0-------------0--0--------------|


E E Q E E Q E E Q Q Q E E E E E E E E
------------------------|-----------------------|--------------------------|
------------------------|-----------------------|--------------------------|
------------------------|-----------------------|--------------------------|
------------------------|-----------------------|--------------------------|
--0--0-------0--0-------|--0--0-----------------|--0--0--0-----0--0--0-----|
--0--0-------0--0-------|--0--0-----------------|--0--0--0-----0--0--0-----|


E E E Q Q E E E Q E E Q E E Q Q Q
------------------------|------------------------|-----------------------|
------------------------|------------------------|-----------------------|
------------------------|------------------------|-----------------------|
------------------------|--3--3-------3--3-------|--3--3-----------------|
--0--0--0---------------|--1--1-------1--1-------|--1--1-----------------|
--0--0--0---------------|------------------------|-----------------------|


W W E E E E E E E E
------------------------------------|------------------------------------|
------------------------------------|-------------(18)-------------(18)--|
------------------------------------|--------19b--------------19b--------|
------------------------------------|------------------------------------|
------------------------------------|--0--0-------------0--0-------------|
------------------------------------|--0--0-------------0--0-------------|


E E E E E E Q E E E E E E E E
----------------------------------|------------------------------------|
-------------(18)------18---------|-------------(18)-------------(18)--|
--------19b--------17------19b----|--------19b--------------19b--------|
----------------------------------|------------------------------------|
--0--0----------------------------|--0--0-------------0--0-------------|
--0--0----------------------------|--0--0-------------0--0-------------|


E E E E E E E E E E Q E E Q
-----------------------------------|------------------------|
-------------(18)------------------|------------------------|
--------19b--------17------17--17--|------------------------|
-----------------------17----------|------------------------|
--0--0-----------------------------|--0--0-------0--0-------|
--0--0-----------------------------|--0--0-------0--0-------|


E E Q Q Q S S S S Q S S S S Q S S S S H Q
-----------------------|----------------------------|------------------------|
-----------------------|----------------------------|------------------------|
-----------------------|----------------------------|------------------------|
-----------------------|----------------------------|------------------------|
--0--0-----------------|--0-0-0-0------0-0-0-0------|--0-0-0-0---------------|
--0--0-----------------|--0-0-0-0------0-0-0-0------|--0-0-0-0---------------|


E E Q E E Q E E H Q S S S S Q S S S S Q
------------------------|----------------------|----------------------------|
------------------------|----------------------|----------------------------|
------------------------|----------------------|----------------------------|
--3--3-------3--3-------|--3--3----------------|--3-3-3-3------5-5-5-5------|
--1--1-------1--1-------|--1--1----------------|--1-1-1-1------3-3-3-3------|
------------------------|----------------------|----------------------------|


S S S S Q S S S S Q E E E E E E E E
--------------------------------|--------------------------|
--------------------------------|--------------------------|
--------------------------------|--------------------------|
--7-7-7-7------10-10-10-10------|--------------------------|
--5-5-5-5-------8--8--8--8------|--3--0--1--0--3--0--1--0--|
--------------------------------|--3--0--1--0--3--0--1--0--|


E E E E Q Q W W
------------------------|-------------------|-------------------|
------------------------|-------------------|-------------------|
------------------------|-------------------|-------------------|
--------------3----5----|--1----------------|--7----------------|
--3--0--1--0--1----3----|--1----------------|--7----------------|
--3--0--1--0------------|--1----------------|--7----------------|


W H H W
-------------------|--------------------|-------------------|
-------------------|--------------------|-------------------|
-------------------|-----------5--------|-------------------|
--0----------------|--3--------5--------|--1----------------|
--0----------------|--3--------3--------|--1----------------|
--0----------------|--3-----------------|--1----------------|


W W E E E Q Q E
-------------------|-------------------|---------------------------|
-------------------|-------------------|---------------------------|
-------------------|-------------------|---------------------------|
--7----------------|--0----------------|-----------3---------------|
--7----------------|--0----------------|--3--5--0--3----5~-------|
--7----------------|--0----------------|--3--5--0------------------|


W W W
-------------------|-------------------|-------------------|
-------------------|-------------------|-------------------|
-------------------|-------------------|-------------------|
--1----------------|--7----------------|--0----------------|
--1----------------|--7----------------|--0----------------|
--1----------------|--7----------------|--0----------------|


H H W W
--------------------|-------------------|-------------------|
--------------------|-------------------|-------------------|
-----------5--------|-------------------|-------------------|
--3--------5--------|--1----------------|--7----------------|
--3--------3--------|--1----------------|--7----------------|
--3-----------------|--1----------------|--7----------------|


W E E E Q Q E E E E E E Q E
-------------------|---------------------------|--------------------------|
-------------------|---------------------------|--------------------------|
-------------------|---------------------------|--------------------------|
--0----------------|-----------3---------------|--------7--------7~-------|
--0----------------|--3--5--0--3----5~-------|--0--0--7--0--0--7b-------|
--0----------------|--3--5--0------------------|--0--0-----0--0-----------|


W H H W
-------------------|----------------------|-------------------|
-------------------|----------------------|-------------------|
-------------------|----------------------|-------------------|
--7----------------|--10s--------5--------|--8----------------|
--5----------------|---8s--------3--------|--6----------------|
-------------------|----------------------|-------------------|


H H W H H
--------------------|-------------------|----------------------|
--------------------|-------------------|----------------------|
--------------------|-------------------|----------------------|
--3--------3--------|--7----------------|--10s--------5--------|
--1--------3--------|--5----------------|---8s--------3--------|
--------------------|-------------------|----------------------|


W H H
-------------------|--------------------|-------------------|
-------------------|--------------------|-------------------|
-------------------|--------------------|-------------------|
--8----------------|--3--------3--------|-------------------|
--6----------------|--1--------3--------|-------------------|
-------------------|--------------------|-------------------|



W
-------------------|-------------------|-------------------|-------------------|
-------------------|-------------------|-------------------|-------------------|
-------------------|-------------------|-------------------|-------------------|
-------------------|-------------------|-------------------|--1----------------|
-------------------|-------------------|-------------------|--1----------------|
-------------------|-------------------|-------------------|--1----------------|


W W H H
-------------------|-------------------|--------------------|
-------------------|-------------------|--------------------|
-------------------|-------------------|-----------5--------|
--7----------------|--0----------------|--3--------5--------|
--7----------------|--0----------------|--3--------3--------|
--7----------------|--0----------------|--3-----------------|


W W W
-------------------|-------------------|-------------------|
-------------------|-------------------|-------------------|
-------------------|-------------------|-------------------|
--1----------------|--7----------------|--0----------------|
--1----------------|--7----------------|--0----------------|
--1----------------|--7----------------|--0----------------|


E E E Q Q E W W
---------------------------|-------------------|-------------------|
---------------------------|-------------------|-------------------|
---------------------------|-------------------|-------------------|
-----------3---------------|--3----------------|--7----------------|
--3--5--0--3----5~-------|--1----------------|--7----------------|
--3--5--0------------------|--1----------------|--7----------------|


W H H W
-------------------|--------------------|-------------------|
-------------------|--------------------|-------------------|
-------------------|-----------5--------|-------------------|
--0----------------|--3--------5--------|--1----------------|
--0----------------|--3--------3--------|--1----------------|
--0----------------|--3-----------------|--1----------------|


W
W W E E E E E Q E
-------------------|-------------------|--------------------------|
-------------------|-------------------|--------------------------|
-------------------|-------------------|--------------------------|
--7----------------|--0----------------|--7--7--7--7--7-----------|
--7----------------|--0----------------|--5--5--6--5--5--6b-------|
--7----------------|--0----------------|--------------------------|


PM PM PM
E E Q E E Q E E Q E E Q E E Q E E E E
-------------------------|-------------------------|-------------------------|
-------------------------|-------------------------|-------------------------|
-------------------------|-------------------------|-------------------------|
--------7----7------7----|--------7----7------7----|--------7----------8-----|
--0--0--5----5s--6--5----|--0--0--5----5s--8--5----|--0--0--5----5--7--8--7--|
--0--0-------------------|--0--0-------------------|--0--0-------------------|


PM PM PM PM PM PM
E E E E E E E E E E Q E E Q E E Q E E Q
--------------------------|-------------------------|-------------------------|
--------------------------|-------------------------|-------------------------|
--------------------------|-------------------------|-------------------------|
--------8-----------8-----|--------7----7------7----|--------7----7------7----|
--5--7--8--7--5--7--8--7--|--0--0--5----5s--6--5----|--0--0--5----5s--8--5----|
--------------------------|--0--0-------------------|--0--0-------------------|


PM PM PM PM PM PM PM PM PM
E E Q E E E E E E E E E E E E E E Q E E Q
-------------------------|--------------------------|-------------------------|
-------------------------|--------------------------|-------------------------|
-------------------------|--------------------------|-------------------------|
--------7----------8-----|--------8-----------8-----|--------7----7------7----|
--0--0--5----5--7--8--7--|--5--7--8--7--5--7--8--7--|--0--0--5----5s--6--5----|
--0--0-------------------|--------------------------|--0--0-------------------|


PM PM PM PM PM PM PM PM PM
E E Q E E Q E E Q E E E E E E E E E E E E
-------------------------|-------------------------|--------------------------|
-------------------------|-------------------------|--------------------------|
-------------------------|-------------------------|--------------------------|
--------7----7------7----|--------7----------8-----|--------8-----------8-----|
--0--0--5----5s--8--5----|--0--0--5----5--7--8--7--|--5--7--8--7--5--7--8--7--|
--0--0-------------------|--0--0-------------------|--------------------------|


PM PM PM
E E Q E E Q E E Q E E Q E E Q E E E E
-------------------------|-------------------------|-------------------------|
-------------------------|-------------------------|-------------------------|
-------------------------|-------------------------|-------------------------|
--------7----7------7----|--------7----7------7----|--------7----------8-----|
--0--0--5----5s--6--5----|--0--0--5----5s--8--5----|--0--0--5----5--7--8--7--|
--0--0-------------------|--0--0-------------------|--0--0-------------------|


PM PM PM PM PM PM
E E E E E E E E
--------------------------|-----||
--------------------------|-----||
--------------------------|-----||
--------8-----------8-----|-----||
--5--7--8--7--5--7--8--7--|-----||
--------------------------|-----||




Duration Legend
---------------
W - whole
H - half
Q - quarter
E - 8th
S - 16th
T - 32nd
X - 64th
. - note dotted
|-n-| - n-tuplets


Tablature Legend
----------------
L - tied note
x - dead note
g - grace note
(n) - ghost note
> - accentuded note
NH - natural harmonic
AH - artificial harmonic
TH - tapped harmonic
SH - semi harmonic
PH - pitch harmonic
h - hammer on
p - pull off
b - bend
br - bendRelease
pb - preBend
pbr - preBendRelease
brb - bendReleaseBend
\n/ - tremolo bar dip
\n - tremolo bar dive
-/n - tremolo bar Release up
/n\ - tremolo bar inverted dip
/n - tremolo bar return
-\n - tremolo bar Release down
S - shift slide
s - legato slide
/ - slide into from below or out of upwards
\ - slide into from above or out of downwards
~ - vibrato
W - wide vibrato
tr - trill
TP - tremolo picking
T - tapping
S - slap
P - pop




Suggest correction


What's this?

You can suggest a correction to this tab. Community and Mods will review your correction and vote to approve or reject it.




Tunning: Standard (E A D G B e)
Band: Children of Bodom
Album: Are You Dead Yet?
Song: Are You Dead Yet?

. - palm mute / - slide up to
\ - slide down to ~ - vibrato
h - hammer on b - Bend
p - pull off Suffixes for bend
t - tap f - full bend h - half bend
ph - pinched harmonic q - quarter bend t - tap bend
* - see comment ^ - Hold bend r release bend
x - Stuccatto ~ - vibrato bend
, - slight palm mute () - ghost note, sustained note
" - tremolo note <> - Trill

Tuning: Drop C (CGCFAd)

Riff A
|--------------------------------------------------------------|
|--------------------------------------------------------------|
|--------------------------------------------------------------|
|--0-0---------------------------------------8-------8-------8-|
|--0-0--5--5-6-5------5---5-6b-------5---5-6-8-6-5-6-8-6-5-6-8-|
|--0-0----0-------0-0---0-------0-0----0-----------------------|
. . . . . . . . .

Riff B
|--------------------------------|
|--------------------------------|
|--------------------------------|
|--------------------------------|
|-------5--5-6-5------5---5-6ph--|
|--0-0----0-------0-0---0--------|
. . . . . .

Riff C
|----------------------------------------------------|
|----------------------------------------------------|
|---------------------------2------------------------|
|-------------------3-----2-----5-------------3--5---|
|-----5---5-6-----1---1-0-----3-----1--0-1--0-1--3---|
|-0-0---0-----0-2-------------------1--0-1--0--------|
. . . . . . .

Riff D
|--------------------------------------------------------------|
|--------------------------------------------------------------|
|--------------------------------------------------------------|
|--------------------------------------------------------------|
|-------5--5-6-5------5---5-6b-------5---5-6-8-6-5-6-8-6-5-6-8-|
|--0-0----0-------0-0---0-------0-0----0-----------------------|
. . . . . . . . .

Riff E
|--------------------------------|
|--------------------------------|
|--------------------------------|
|--------------------------------|
|-------5--5-6-5------5---5-8ph--|
|--0-0----0-------0-0---0--------|
. . . . . .

Riff F
|----------------------------------|
|----------------------------------|
|---------------------------2------|
|-------------------3-----2-----5--|
|-----5---5-6-----1---1-0-----3----|
|-0-0---0-----0-2------------------|
. . .

Riff G
|---------------------------------------------------------------|
|---------------------------------------------------------------|
|---------------------------------------------------------------|
|-----7---7-8-7------7---7-8b------7-------7-------7-------7----|
|-----5---5-6-5------5---5-6b------5---7-8---8-7-8---8-7-8---8--|
|-0-0---0--------0-0---0-------0-0---0--------------------------|
. . . . . . . . .

Riff H
|-------------------------------------------------------------|
|-------------------------------------------------------------|
|-------------------------------------------------------------|
|-----7---7-8-7------7---7-8b------7---8----------------------|
|-----5---5-6-5------5---5-6b------5---6----------8-----8-----|
|-0-0---0--------0-0---0-------0-0---0----0-5-7-8---7-8---8-7-|
. . . . . . . . .

Riff I
|--------13---------13--------13---13---13--|
|-----17---------17---------17--------17----|
|--------------------------------17---------|
|-------------------------------------------|
|-0-0-------0-0--------0-0------------------|
|-0-0-------0-0--------0-0------------------|
. . . . . .

Riff I(contd)
|--------13---------13---------13------------|
|-----17---------17---------17---13----13-13-|
|-----------------------------------12-------|
|--------------------------------------------|
|-0-0-------0-0--------0-0-------------------|
|-0-0-------0-0--------0-0-------------------|
. . . . . .

Riff J (over the top of Riff I)
|--------------------------|
|--------------------------|
|--------------------------|
|-0--5--7--5---0--3--6--1--|
|-0--3--5--3---0--3--6--1--|
|-0------------0--3--6--1--|

Riff K (Alexi and Roope's part put together)
|---------------------------------------------------------------------------|
|---------------------------------------------------------------------------|
|-Alexi----Alexi-----Alexi--------Alexi---------Alexi------Alexi------Alexi-|
|-\--/-----\---/-----\---/-/-----------------\---/-\--10-10-/-\--10-10-/-\--|
|-0-0--0-0--0-0--0-0--0-0--0-0-0--0-0-0--0-0-0---8-8--8--8--8-8--8--8--8-8--|
|-0-0--0-0--0-0--0-0--0-0--0-0-0--0-0-0--0-0-0---8-8--8--8--8-8--8--8--8-8--|
. . . . . . . . . . . . . . . . . . . , , , , , , , , , ,
/ \ / \ \ Roope / \ / \ /
Roope Roope Roope Roope


Riff L
|------------------------------------17^----------r-|
|---------------------------15----------------------|
|------------------14-------------------------------|
|-7^--------r12-15----12-15----12-15----------------|
|---------------------------------------------------|
|---------------------------------------------------|


Riff M
|---------------------------------------------------------------------------|
|---------------------------------------------------------------------------|
|---------------------------------------------------------------------------|
|---------------------------------------------------------------------3--5--|
|-1--1-1-1--1-----3--3-3-3--3----5--5-5-5--5----7--7-7-7--7---1-0-1-0-1--3--|
|-------------------------------------------------------------1-0-1-0-------|
. . . . . . . . . . . . . . . . . . . . . . . .

Riff N
|----------------------------------------------------|
|----------------------------------------------------|
|---------------------------------------7ph----------|
|----------------------------------------------------|
|-----5---5-6-5------5---5-6ph-----5--------5-7-8-10-|
|-0-0---0--------0-0---0-------0-0---0------5-7-8-10-|
. . . . . . . . .

Riff O (GTR 1)
|---------------------------------------------------------------------------|
|-----10----10--10-----13---------------11---11-11--------------8-----------|
|-7-7---7-7---7---10-10--10-----12---8-8--8-8--8------10----------7~--------|
|--------------------------10-10--10---------------8-8---8----8-------------|
|----------------------------------------------------------10---------------|
|---------------------------------------------------------------------------|

Riff O (GTR 2) \
|------------------------------------------------------------------| \
|------------------------------------------------------------------| \
|------------------------------------------------------------------| \
|1212-15-1212-15-12-15-1515-19-15-1414-17-14-1313-17-1313-17-13-17-| |
|------------------------------------------------------------------| |
|------------------------------------------------------------------| |
|
|-----------------------------| |
|-----------------------------| |
|---------------------12------| |
|------------------------12~--| /
|--1313-17-13---10-13---------| /
|-----------------------------| /
____________________________________________________________________/

Riff P
|---------------------------------------------------------------------------|
|-----------------------------10------------------------------------8-------|
|7-10-9-10-7-10-9-10-7-10-9-10---10-9-10-7-10-9-10-7-10-9-10-7-10-9--10-9-10|
|---------------------------------------------------------------------------|
|---------------------------------------------------------------------------|
|---------------------------------------------------------------------------|

Riff P(1) - Played over the top of Riff P
|-------------------| |------------|
|-------------------| |------------|
|-----2-------------| |------------|
|-1---2---0---3-5---| |--3-3--3-5--|
|-1---0---0---3-3---| |--3-3--3-3--|
|-1-------0---3-----| |--3-3--3----|
. .
Riff Q
|--------13--------13-|
|-----17--------17----|
|---------------------|
|---------------------|
|---------------------|
|-0-0-------0-0-------|
. . . .

Riff R
|-------------------------------10-|
|------------------------6b-6b-----|
|----------------5b-5b-------------|
|---------3b-3b--------------------|
|-1b-1b----------------------------|
|----------------------------------|


Riff S
|------------------------------|
|------------------------------|
|------------------------------|
|--------------------------3-5-|
|-3-0-1-0-3-0-1-0-3-0-1-0--1-3-|
|-3-0-1-0-3-0-1-0-3-0-1-0------|
. . . . . . . . . . . .

Uh oh...*****solo*****
|-12-------15---14------17--------20----20---------------|
|-15^~-----18^--17^-----20^~~-----23^---23^--------------|
|--------------------------------------------------------|
|--------------------------------------------------------|
|--------------------------------------------------------|
|--------------------------------------------------------|

|-------19-------19ph-/17--------19-22--------22ph-/21-------21------|
|----------17-17----------15-17--------20-20-----------19-19---------|
|--------------------------------------------------------------------|
|--------------------------------------------------------------------|
|--------------------------------------------------------------------|
|--------------------------------------------------------------------|


_________________________________VERYFAST___________________________________

|-20-19-17-20-19-17--------------17-----------------------------------------|
|------------------20-19-17-19-20--20-19-17---------------------------------|
|------------------------------------------19-20-17-19-20-19-17-----19-17---|
|--------------------------------------------------------------19-17--------|
|---------------------------------------------------------------------------|
|---------------------------------------------------------------------------|


___VERY FAST______
| |
|---------------------17^-------r17^-------r15------22^------------r-|
|---------------------18^-------r18^-------r---17--------------------|
|----------------17--------------------------------------------------|
|-19-17----17-19-----------------------------------------------------|
|-------19-----------------------------------------------------------|
|--------------------------------------------------------------------|


|-17-13-------20-17-------17-13---------17-12-------------------------------|
|-------15----------18----------15------------13-----14^---r14^------r------|
|----------14----------19----------14------------14--14^---r14^------r12----|
|------------------------------------------------------------------------14-|
|---------------------------------------------------------------------------|
|---------------------------------------------------------------------------|


|---------------------------------------------------------------------------|
|-14^---r14^---r----------------------------------------13b--------13b--15b-|
|-14^---r14^---r-12----14-12-----------14b----12b---14b--------14b----------|
|-------------------14-------14---------------------------------------------|
|---------------------------------------------------------------------------|
|---------------------------------------------------------------------------|


|------------12b-------12b--15b----------|
|-13b----15-------15---------------------|
|----------------------------------------|
|----------------------------------------|
|----------------------------------------|
|----------------------------------------|

Riff t (Backing To Solo)
|-------------------------------------------------------------------|
|-------------------------------------------------------------------|
|-------------------------------------------------------------------|
|------------------------------------------------------------3-3-3--|
|------------------------------------------------------------3-3-3--|
|--2-2-5-2-2-5-2-5-5-5-8-5-4-4-7-4-3-3-7-3-3-7-3-7-0-0-3-0-0-3-3-3--|

riff U
|---------------|
|---------------|
|---------------|
|---------------|
|-----6-----6b--|
|-0-0---0-0-----|
. . . .

Riff V
|---------------------------------------------------------------|
|---------------------------------------------------------------|
|---------------------------------------------------------------|
|-----7---7-8-7------7---7-8b------7--------8-------8-------8---|
|-----5---5-6-5------5---5-6b------5----5-6-8-6-5-6-8-6-5-6-8-6-|
|-0-0---0--------0-0---0-------0-0---0--------------------------|
. . . . . . . . .

Riff W
|---------------------------------------------------------------|
|---------------------------------------------------------------|
|---------------------------------------------------------------|
|-----7---7-8-7------7---7---------7--------8-------8-------8---|
|-----5---5-6-5------5---5-6ph-----5----5-6-8-6-5-6-8-6-5-6-8-6-|
|-0-0---0--------0-0---0-------0-0---0--------------------------|
. . . . . . . . .


riff order
Riff A
Riff B
Riff C
Riff D
Riff E
Riff F
Riff G
Riff H
Riff I&J
Riff K
Riff L
Riff I&J
Riff K
Riff M
Riff N
Riff O x2
Riff P&P(1)x4
Riff Q
Riff K
Riff R
Riff I&J
Riff K
Riff M
Riff S
Riff P&P(1)x4
Riff O x2
Solo & Riff t
Riff P&P(1)x4
Riff U
Riff V
Riff W
Riff V
Riff W
Tunning: Drop C (C G C F A D)
Are you dead yet?
Children of Bodom
Are you Dead Yet?
Tabbed by Taylor Smith
Tuning - CGCFAD

. - palm mute / - slide up to
\ - slide down to ~ - vibrato
h - hammer on b - Bend
p - pull off Suffixes for bend
t - tap f - full bend h - half bend
* - pinched harmonic q - quarter bend t - tap bend
^ - Hold bend r release bend
x - Stuccatto ~ - vibrato bend
, - slight palm mute () - ghost note, sustained note
" - tremolo note - Trill

I tried submitting this a while ago, but it got rejected.
so i came back and fixed a lot of it. it was definately not
the easiest tab on earth... i put alexi's and roopes parts on top of each
other so you can see how they corralate. everything is in
chronological order. on the solo i used version 2's except
for the beginning. i also included the rhythm part. no other tab included the
rhythm part. this took me FOREVER to do...






____________

INTRO
____________








Alexi's part
D|-------------------------------------------------------------------------------------|
A|-------------------------------------------------------------------------------------|
F|-------------------------------------------------------------------------------------|
C|----------------------------------------8-------10-------8---------------------------|
G|----5p0-5h6p5~----5p0-5h6b8~----5p0-5-6-8-6-5-6-8--6-5-6-8---5p0-5h6p5~----5p0-5-8*~-|
C|--00------------00------------00---------------------------00------------00----------|
.. .. .. , , , , , , .. ..
D|---------------------------------------|
A|---------------------------------------|
F|------------------3----2-----------3-5-|
C|-----------------3----2--0-1-0-1-0-3-5-|
G|----5p0-5h6p5~--1----0---0-1-0-1-0-1-3-|
C|--00-----------0----0----0-1-0-1-0-----|
.. . . . . .



Roope's Part
D|-------------------------------------------------------------------------------------|
A|-------------------------------------------------------------------------------------|
F|-------------------------------------------------------------------------------------|
C|--00--------------------------00-------------------------------------------------8*~-|
G|--00--------------------------00-----------------------------5p0-5h6p5~----5p0-5-----|
C|--00--------------------------00---------------------------00------------00----------|
.. .. .. ..
D|---------------------------------------|
A|---------------------------------------|
F|------------------3----2-----------3-5-|
C|-----------------3----2--0-1-0-1-0-3-5-|
G|----5p0-5h6p5~--1----0---0-1-0-1-0-1-3-|
C|--00-----------0----0----0-1-0-1-0-----|
.. . . . . .



BOTH (on the pinch, alexi does one and roope does the other)
D|-------------------------------------------------------------------------------------|
A|-------------------------------------------------------------------------------------|
F|-------------------------------------------------------------------------------------|
C|----------------------------------------8-------10-------8-----------------------8*~-|
G|----5p0-5h6p5~----5p0-5h6b8~----5p0-5-6-8-6-5-6-8--6-5-6-8---5p0-5h6p5~----5p0-5-8*~-|
C|--00------------00------------00---------------------------00------------00----------|
.. .. .. , , , , , , .. ..
D|-------------------------|
A|-------------------------|
F|------------------3----2-|
C|-----------------3----2--|
G|----5p0-5h6p5~--1----0---|
C|--00-----------0----0----|

D|-----------------------------------------------------|
A|-----------------------------------------------------|
F|-----------------------------------------------------|
C|----7-7/8\7----7-7/8--------------8-------10-------8-|
G|----5-5/6\5----5-5/6------5p0-5-6-8-6-5-6-8--6-5-6-8-|
C|--00---------00---------00---------------------------|x2
.. .. ..


Alexi
D|------13----13----13--13-------13----13----13--------|
A|----17----17----17--13--17---17----17----17--13--13--|
F|-----------------------------------------------12----|
C|-----------------------------------------------------|
G|-----------------------------------------------------|
C|-----------------------------------------------------|


Roope
D|-----------------------------------------------------|
A|-----------------------------------------------------|
F|-----------------------------------------------------|
C|--00----00----00-----------00----00----00------------|
G|--00----00----00-----------00----00----00------------|
C|--00----00----00-----------00----00----00--Pickslide-|
.. .. .. .. .. ..


Alexi
D|------13----13----13--13-------13----13----13--------|
A|----17----17----17--13--17---17----17----17--13--13--|
F|-----------------------------------------------12----|
C|-----------------------------------------------------|
G|-----------------------------------------------------|
C|-----------------------------------------------------|x2

Roope
D|---------------------------|
A|---------------------------|
F|--7--5--7--5---------------|
C|--7--5--7--5--0--3--6--1---|
G|--5--3--5--3--0--3--6--1---|
C|--------------0--3--6--1---|Background of high riff







__________

Verse
__________


0:46








Alexi
D|-----------------------------------------------|
A|-----------------------------------------------|
F|-----------------------------------------------|
C|-----------------------------------------------|
G|--00--00--00--000--000--000----88----88----88--|
C|--00--00--00--000--000--000----88----88----88--|
.. .. .. ... ... ... .. .. ..
Roope
D|-----------------------------------------------|
A|-----------------------------------------------|
F|-----------------------------------------------|
C|---------------------------------1010--1010----|
G|----00--00----000--000--000------8-8---8-8-----|
C|----00--00----000--000--000--------------------|
.. .. ... ... ... . . . .

Alexi
D|------------------------------------17~~-----------|
A|---------------------------15----------------------|
F|------------------14-------------------------------|
C|-7^--------r12-15----12-15----12-15----------------|
G|---------------------------------------------------|
C|---------------------------------------------------|

Roope
D|------------------------------------22~~-----------|
A|---------------------------15----------------------|
F|------------------14-------------------------------|
C|-7^--------r12-15----12-15----12-15----------------|
G|---------------------------------------------------|
C|---------------------------------------------------|


Alexi
D|------13----13----13--13-------13----13----13--------|
A|----17----17----17--13--17---17----17----17--13--13--|
F|-----------------------------------------------12----|
C|-----------------------------------------------------|
G|-----------------------------------------------------|
C|-----------------------------------------------------|


Roope
D|--------------|
A|--------------|
F|--7--5--7--5--|
C|--7--5--7--5--|
G|--5--3--5--3--|
C|--------------|


Alexi
D|--------------------------------------------------|
A|--------------------------------------------------|
F|--------------------------------------------------|
C|--------------------------------------------------|
G|--00--00--00--00000-00000-00000---88----88----88--|
C|--00--00--00--00000-00000-00000---88----88----88--|
.. .. .. ..... ..... ..... .. .. ..
Roope
D|--------------------------------------------------|
A|--------------------------------------------------|
F|--------------------------------------------------|
C|------------------------------------1010--1010----|
G|----00--00----00000-00000-00000-----8-8---8-8-----|
C|----00--00----00000-00000-00000-------------------|
.. .. ..... ..... ..... . . . .

BOTH
D|---------------------------------------------|
A|---------------------------------------------|
F|---------------------------------------------|
C|---------------------------------------------|
G|--88888--1010101010--1212121212--1414141414--|
C|--88888--1010101010--1212121212--1414141414--|
..... . . . . . . . . . . . . . . .

Both
D|-------------------|
A|-------------------|
F|-------------3--5--|
C|--0-1-0-1-0--3--5--|
G|--0-1-0-1-0--1--3--|
C|--0-1-0-1-0--------|
. . . . .








______________

Post Verse
______________

1:12







BOTH (on the pinch, alexi does one and roope does the other)
D|-------------------------------------------------------------------------------------|
A|-------------------------------------------------------------------------------------|
F|-------------------------------------------------------------------------------------|
C|----------------------------------------8-------10-------8-----------------------8*~-|
G|----5p0-5h6p5~----5p0-5h6b8~----5p0-5-6-8-6-5-6-8--6-5-6-8---5p0-5h6p5~----5p0-5-8*~-|
C|--00------------00------------00---------------------------00------------00----------|
.. .. .. , , , , , , .. ..
D|-------------------------|
A|-------------------------|
F|-------------------------|
C|----------------5-7-8-10-|
G|----5p0-5h6p5~--5-7-8-10-|
C|--00------------5-7-8-10-|








________________

Bridge Riff
________________

1:22






Alexi
D|-----------------------------------------------------------------------------------------|
A|-----------------------------------------------------------------------------------------|
F|-------14-------14----14-/------17----\-------12----/-------15-------15----15-\-----10---|
C|-12-12----12-12----12----/15-15----15-\-10-10----10-/-13-13----13-13----13----\-8-8----8-|
G|-----------------------------------------------------------------------------------------|
C|-----------------------------------------------------------------------------------------|

D|-------------|
A|----------8--|
F|-------7-----|
C|-----8-------|
G|--10---------|
C|-------------|

Roope
D|-----------------------------------------------------------------------------------------|
A|-----------------------------------------------------------------------------------------|
F|-------10-------10----10-/------14----\------12----/-------12-------12----12-\-----7-----|
C|-12-12----12-12----12----/15-15----15-\-14-14---14-/-13-13----13-13----13----\-8-8----8--|
G|-----------------------------------------------------------------------------------------|
C|-----------------------------------------------------------------------------------------|

D|-------------|
A|-------11-10-|
F|-------------|
C|----12-------|
G|--13---------|
C|-------------|






_____________

Chorus
_____________

1:33






BOTH
D|----------------------------------------------------------------------------|
A|----------------------------------------------------------------------------|
F|----------------------------------------------------------------------------|
C|--1~~-7~~-0~--3/10--1~~--7~~-0~-3--------1~--7~--0~--3/10--1~--7~~--0~-3/10-|
G|--1~~-7~~-0~--3/10--1~~--7~~-0~-3--------1~--7~--0~--3/10--1~--7~~--0~-3/10-|
C|--1~~-7~~-0~--3/10--1~~--7~~-0~-3--5*~~--1~--7~--0~--3/10--1~--7~~--0~-3/10-|


Anyone (?) it sounds like this is in the background
D|------------------|with like a synth wah chorus effect or somethin
A|--18p17h18p17h18--|you can decide for yourself.
F|------------------|
C|------------------|
G|------------------|
C|------------------|x many






________________

Post Chorus
________________


1:52





Alexi
D|------13----13----|
A|----17----17------|
F|------------------|
C|------------------|
G|------------------|
C|------------------|

Roope
D|------------------|
A|------------------|
F|------------------|
C|--00----00--------|
G|--00----00--------|
C|--00----00--------|
.. ..






______________

Verse
______________


1:54






Alexi
D|-----------------------------------------------|
A|-----------------------------------------------|
F|-----------------------------------------------|
C|-----------------------------------------------|
G|--00--00--00--000--000--000----88----88----88--|
C|--00--00--00--000--000--000----88----88----88--|
.. .. .. ... ... ... .. .. ..
Roope
D|-----------------------------------------------|
A|-----------------------------------------------|
F|-----------------------------------------------|
C|---------------------------------1010--1010----|
G|----00--00----000--000--000------8-8---8-8-----|
C|----00--00----000--000--000--------------------|
.. .. ... ... ... . . . .

Alexi
D|------------------------------------17~~-----------|
A|---------------------------15----------------------|
F|------------------14-------------------------------|
C|-7^--------r12-15----12-15----12-15----------------|
G|---------------------------------------------------|
C|---------------------------------------------------|

Roope
D|------------------------------------22~~-----------|
A|---------------------------15----------------------|
F|------------------14-------------------------------|
C|-7^--------r12-15----12-15----12-15----------------|
G|---------------------------------------------------|
C|---------------------------------------------------|


Alexi
D|------13----13----13--13-------13----13----13--------|
A|----17----17----17--13--17---17----17----17--13--13--|
F|-----------------------------------------------12----|
C|-----------------------------------------------------|
G|-----------------------------------------------------|
C|-----------------------------------------------------|

Roope
D|--------------|
A|--------------|
F|--------------|
C|--0--3--2--1--|
G|--0--3--2--1--|
C|--0--3--2--1--|

Alexi
D|--------------------------------------------------|
A|--------------------------------------------------|
F|--------------------------------------------------|
C|--------------------------------------------------|
G|--00--00--00--00000-00000-00000---88----88----88--|
C|--00--00--00--00000-00000-00000---88----88----88--|
.. .. .. ..... ..... ..... .. .. ..
Roope
D|--------------------------------------------------|
A|--------------------------------------------------|
F|--------------------------------------------------|
C|------------------------------------1010--1010----|
G|----00--00----00000-00000-00000-----8-8---8-8-----|
C|----00--00----00000-00000-00000-------------------|
.. .. ..... ..... ..... . . . .

BOTH
D|---------------------------------------------|
A|---------------------------------------------|
F|---------------------------------------------|
C|---------------------------------------------|
G|--88888--1010101010--1212121212--1414141414--|
C|--88888--1010101010--1212121212--1414141414--|
..... . . . . . . . . . . . . . . .

Both
D|---------------------|
A|---------------------|
F|----------------3-5--|
C|-303030303030---3-5--|
G|-303030303030---1-3--|
C|-303030303030--------|
............




_______________

Chorus
_______________

2:21



BOTH
D|----------------------------------------------------------------------------|
A|----------------------------------------------------------------------------|
F|----------------------------------------------------------------------------|
C|--1~~-7~~-0~--3/10--1~~--7~~-0~-3--------1~--7~--0~--3/10--1~--7~~--0~-3/10-|
G|--1~~-7~~-0~--3/10--1~~--7~~-0~-3--------1~--7~--0~--3/10--1~--7~~--0~-3/10-|
C|--1~~-7~~-0~--3/10--1~~--7~~-0~-3--5*~~--1~--7~--0~--3/10--1~--7~~--0~-3/10-|


Anyone (?) it sounds like this is in the background
D|------------------|with like a synth wah chorus effect or somethin
A|--18p17h18p17h18--|you can decide for yourself.
F|------------------|
C|------------------|
G|------------------|
C|------------------|x many


BOTH
D|----------------|
A|----------------|
F|----------------|
C|----------------|
G|-----6----7b8~~-|
C|--00---00-------|
.. ..




_________________

Bridge Riff 2
_________________


2:41





Alexi
D|-----------------------------------------------------------------------------------------|
A|-----------------------------------------------------------------------------------------|
F|-------14-------14----14-/------17----\-------12----/-------15-------15----15-\-----10---|
C|-12-12----12-12----12----/15-15----15-\-10-10----10-/-13-13----13-13----13----\-8-8----8-|
G|-----------------------------------------------------------------------------------------|
C|-----------------------------------------------------------------------------------------|

D|-------------|
A|----------8--|
F|-------7-----|
C|-----8-------|
G|--10---------|
C|-------------|

Roope
D|-----------------------------------------------------------------------------------------|
A|-----------------------------------------------------------------------------------------|
F|-------10-------10----10-/------14----\------12----/-------12-------12----12-\-----7-----|
C|-12-12----12-12----12----/15-15----15-\-14-14---14-/-13-13----13-13----13----\-8-8----8--|
G|-----------------------------------------------------------------------------------------|
C|-----------------------------------------------------------------------------------------|

D|-------------|
A|-------11-10-|
F|-------------|
C|----12-------|
G|--13---------|
C|-------------|





_____________

Solo...
_____________



2:52


Alexi
D|------------------------19^-19^--|
A|--15^~---18^-17^--20^~-----------|
F|---------------------------------|
C|---------------------------------|
G|---------------------------------|
C|---------------------------------|

D|------19-------19ph-/17--------19-22--------22ph-/21-------21-|
A|---------17-17----------15-17--------20-20-----------19-19----|
F|--------------------------------------------------------------|
C|--------------------------------------------------------------|
G|--------------------------------------------------------------|
C|--------------------------------------------------------------|


_________________________________VERYFAST___________________________________

D|-20-17-19-20-19-17-------------17------------------------------------------|
A|----------------20-19-17-19-20----20-19-17---------------------------------|
F|-------------------------------------------19-20-17-19-20-19-17-------19-17|
C|----------------------------------------------------------------19-17------|
G|---------------------------------------------------------------------------|
C|---------------------------------------------------------------------------|


___VERY FAST______
| |
D|---------------------17^-------r17^-------r15------22^------------r-|
A|---------------------18^-------r18^-------r---17--------------------|
F|---------------17---------------------------------------------------|
C|-19-17----17-19-----------------------------------------------------|
G|------19------------------------------------------------------------|
C|--------------------------------------------------------------------|


D|-17-13-------20-17-------17-13---------17-12-------------------------------|
A|-------15----------18----------15------------13-----14^---r14^------r------|
F|----------14----------19----------14------------14--14^---r14^------r12----|
C|------------------------------------------------------------------------14-|
G|---------------------------------------------------------------------------|
C|---------------------------------------------------------------------------|


D|---------------------------------------------------------------------------|
A|-14^---r14^---r----------------------------------------13b--------13b--15b-|
F|-14^---r14^---r-12----14-12-----------14b----12b---14b--------14b----------|
C|-------------------14-------14---------------------------------------------|
G|---------------------------------------------------------------------------|
C|---------------------------------------------------------------------------|


D|------------12b-------12b--15b----------|
A|-13b----15-------15---------------------|
F|----------------------------------------|
C|----------------------------------------|
G|----------------------------------------|
C|----------------------------------------|



Roope (background) same rythym as the bridge.
D|----------------------------------------------------------------|
A|----------------------------------------------------------------|
F|----------------------------------------------------------------|
C|----------------------------------------------------------------|
G|--22-5-22-5-2-5--55-8-5--44-7-4--33-6-33-6-3-6--00-3-0--00-3-0--|
C|--22-5-22-5-2-5--55-8-5--44-7-4--33-6-33-6-3-6--00-3-0--00-3-0--|x idk. figure it out.





__________________

Final Chorus
__________________

3:12


BOTH
D|-------------------------------------------------------------------------------------|
A|-------------------------------------------------------------------------------------|
F|-------------------------------------------------------------------------------------|
C|--1~~-7~~-0~--3/10--1~~--7~~-0~-3--------1~--7~--0~--3/10--1~--7~~--0~-\-------------|
G|--1~~-7~~-0~--3/10--1~~--7~~-0~-3--------1~--7~--0~--3/10--1~--7~~--0~-\----6---7b8~-|
C|--1~~-7~~-0~--3/10--1~~--7~~-0~-3--5*~~--1~--7~--0~--3/10--1~--7~~--0~-\-00--00------|
.. ..

Anyone (?) it sounds like this is in the background
D|------------------|with like a synth wah chorus effect or somethin
A|--18p17h18p17h18--|you can decide for yourself.
F|------------------|
C|------------------|
G|------------------|
C|------------------|x many



__________

Outro
__________

3:32

BOTH
D|-----------------------------------------------------|
A|-----------------------------------------------------|
F|-----------------------------------------------------|
C|----7-7/8\7----7-7/8--------------8-------10-------8-|
G|----5-5/6\5----5-5/6------5p0-5-6-8-6-5-6-8--6-5-6-8-|
C|--00---------00---------00---------------------------|
.. .. ..

BOTH
D|-----------------------------------------------------|
A|-------------------10*~~-----------------------------|
F|-----------------------------------------------------|
C|----7-7/8\7----7-7----------------8-------10-------8-|
G|----5-5/6\5----5-5--------5p0-5-6-8-6-5-6-8--6-5-6-8-|
C|--00---------00---------00---------------------------|
.. .. ..

BOTH
D|-----------------------------------------------------|
A|-----------------------------------------------------|
F|-----------------------------------------------------|
C|----7-7/8\7----7-7/8--------------8-------10-------8-|
G|----5-5/6\5----5-5/6------5p0-5-6-8-6-5-6-8--6-5-6-8-|
C|--00---------00---------00---------------------------|x2
.. .. ..








Oh man... i hope that was good. enjoy. leave comments and ratings PLEASE. cob rules.
Tunning: Standard (E A D G B e)
Children of Bodom:
Are You Dead Yet?
Tuning:C G C F A D

Key:
/-Slide up
\-Slide down
h-Hammer-on
p-Pull-off
~-Vibrato




Suggest correction


What's this?

You can suggest a correction to this tab. Community and Mods will review your correction and vote to approve or reject it.




Tunning: DAFCGC (D A F C G C)
----------------------------------------------------------------------------
Are You Dead Yet? - Children of Bodom
----------------------------------------------------------------------------
#----------------------------------PLEASE NOTE---------------------------#
#This file is the author's own work and represents their interpretation of the #
#song. You may only use this file for private study, scholarship, or research. #
#------------------------------------------------------------------------##

Tabbed by:Guitarplayer163
Email:Guitarplayer1636@yahoo.com
Email if you have any questions or concerns!

Tuning:Drop C (C G C F A D)


[Intro]

Guitar 1
C|-------------------------------------------------------------------------|
G|-------------------------------------------------------------------------|
C|-------------------------------------------3----------5-----------3------|
F|-------------------------------------------3----------3-----------3------|
A|-----5---5h6-5------5---5-6~~----5---5--6----6--5--6-----6--5--6-----6---|
D|-0-0---0--------0-0---0------0-0---0-------------------------------------|
pm.. . . . . . . . . . . . . . . .

Guitar 2
C|-------------------------------------------------------------------------|
G|-------------------------------------------------------------------------|
C|-------------------------------------------------------------------------|
F|-------------------------------------------------------------------------|
A|-0-0-------------------------0-0-----------------------------------------|
D|-0-0-------------------------0-0-----------------------------------------|
pm.. . . .

Guitar 1,2
C|-------------------------------------------------------------------------|
G|-------------------------------------------------------------------------|
C|-------------------------------------------------------------------------|
F|-----------------------------------------------0-3---0-3-2------------3-5|
A|-----5---5h6-5------5---5-6*~----5---5h6---0-1-----0-------3----------1-3|
D|-0-0---0--------0-0---0------0-0---0-----5-------------------3-0-2-2-0---|
pm.. . . . . . . . . . . . . .

Guitar 1
C|-------------------------------------------------------------------------|
G|-------------------------------------------------------------------------|
C|-------------------------------------------3----------5-----------3------|
F|-------------------------------------------3----------3-----------3------|
A|-----5---5h6-5------5---5-6~~----5---5--6----6--5--6-----6--5--6-----6---|
D|-0-0---0--------0-0---0------0-0---0-------------------------------------|
pm.. . . . . . . . . . . . . . . .

Guitar 2
C|-------------------------------------------------------------------------|
G|-------------------------------------------------------------------------|
C|-------------------------------------------5----------5-----------5------|
F|-----7---7h8-7------7---7-8~-----7---7--8----8--7--8-----8--7--8-----8---|
A|-------0--------------0------------0-------------------------------------|
D|-0-0------------0-0----------0-0-----------------------------------------|
pm.. . . . . . . . . . . . . . .

Guitar 1
C|-------------------------------------------------------------------------|
G|-------------------------------------------------------------------------|
C|-------------------------------------------------------------------------|
F|----------------------------------------------------0--3-----0--3--2-----|
A|-----5---5h6-5------5---5-6*~----5---5h6------0--1--------0-----------3--|
D|-0-0---0--------0-0---0------0-0---0------5------------------------------|
pm.. . . . . . . . .

Guitar 2
C|-------------------------------------------------------------------------|
G|--------------------------------------------------------6---------6--5---|
C|-----------------------------------------------------7--------7---------5|
F|-----7---7h8-7------7---7-8*~----7----7-----5--7--8--------7-------------|
A|-------0--------------0-------------0----0-------------------------------|
D|-0-0------------0-0----------0-0-----------------------------------------|
pm.. . . . . . . . . . . . . .

Guitar 1
C|-------------------------------------------------------------------------|
G|-------------------------------------------------------------------------|
C|-------------------------------------------------------------------------|
F|-----7---7/8--7-------7---7-8-------7-----------3----------3---------3---|
A|-----5---5/6--5-------5---5-6-------5--0--3--5----5--3--5----5--3--5---3-|
D|-0-0---0----------0-0---0-------0-0----0---------------------------------|
pm.. . . . . . . . . . . . .

Guitar 2
C|-------------------------------------------------------------------------|
G|-------------------------------------------------------------------------|
C|-------------------------------------------------------------------------|
F|-----7---7/8--7-------7---7-8-------7----------10---------10*-------10---|
A|-----5---5/6--5-------5---5-6-------5-----7--8----8--7--8----8--7--8---7-|
D|-0-0---0----------0-0---0-------0-0----0---------------------------------|
pm.. . . . . . . . . . . . . . . . . .

Guitar 1
C|-------------------------------------------------------------------------|
G|-------------------------------------------------------------------------|
C|-------------------------------------------------------------------------|
F|-----7---7/8--7-------7---7-8-------7-----------3----------3---------3---|
A|-----5---5/6--5-------5---5-6-------5--0--3--5----5--3--5----5--3--5---3-|
D|-0-0---0----------0-0---0-------0-0----0---------------------------------|
pm.. . . . . . . . . . . . .

Guitar 2
C|-------------------------------------------------------------------------|
G|-------------------------------------------------------------------------|
C|-------------------------------------------------------------------------|
F|-----7---7/8--7-------7---7-8-------7----------10---------10*-------10---|
A|-----5---5/6--5-------5---5-6-------5-----7--8----8--7--8----8--7--8---7-|
D|-0-0---0----------0-0---0-------0-0----0---------------------------------|
pm.. . . . . . . . . . . . . . . . . .

Guitar 1
C|-------13-------13-------13---13----13------13-------13-----13---------12|
G|----17-------17-------17---------17------17-------17------17---13----13--|
C|----------------------------17-------------------------------------12----|
F|-------------------------------------------------------------------------|
A|-------------------------------------------------------------------------|
D|-0-0------0-0------0-0-----------------0-0------0-0-----0-0--------------|
pm.. . . . . . . . . . . .

Guitar 2
C|-------------------------------------------------------------------------|
G|-------------------------------------------------------------------------|
C|-------------------------------------------------------------------------|
F|-------------------------------------------------------------------------|
A|-0-0-----0-0------0-0------------------0-0-----0-0------0-0--------------|
D|-0-0-----0-0------0-0------------------0-0-----0-0------0-0-X\-----------|
pm.. . . . . . . . . . . .

Guitar 1
C|-------13-------13-------13---13----13------13-------13-----13---------12|
G|----17-------17-------17---------17------17-------17------17---13----13--|
C|----------------------------17------------------------------------12-----|
F|-------------------------------------------------------------------------|
A|-------------------------------------------------------------------------|
D|-0-0------0-0------0-0-----------------0-0------0-0-----0-0--------------|
pm.. . . . . . . . . . . .

Guitar 2
C|-------------------------------------------------------------------------|
G|-------------------------------------------------------------------------|
C|-------------------5-----------------7-----------------5-----------------|
F|-0-----------------5-----------------7-----------------5-----------------|
A|-0-----------------3-----------------5-----------------3-----------------|
D|-0-----------------------------------------------------------------------|

Guitar 1
C|-------13-------13-------13---13----13------13-------13-----13---------12|
G|----17-------17-------17---------17------17-------17------17---13----13--|
C|----------------------------17------------------------------------12-----|
F|-------------------------------------------------------------------------|
A|-------------------------------------------------------------------------|
D|-0-0------0-0------0-0-----------------0-0------0-0-----0-0--------------|
pm.. . . . . . . . . . . .

Guitar 2
C|-------------------------------------------------------------------------|
G|-------------------------------------------------------------------------|
C|-------------------------------------------------------------------------|
F|-0-----------------3-----------------6-----------------1--------1--------|
A|-0-----------------3-----------------6-----------------1--------1--------|
D|-0-----------------3-----------------6-----------------1--------1--------|


[Verse]

Guitar 1
C|-------------------------------------------------------------------------|
G|-------------------------------------------------------------------------|
C|-------------------------------------------------------------------------|
F|-------------------------------------------------------------------------|
A|-0-0--------0-0--------0-0----------0-0-0---0-0-0---0-0-0----------------|
D|-0-0--------0-0--------0-0----------0-0-0---0-0-0---0-0-0----------------|
pm.. . . . . . . . . . . . . . .

Guitar 2
C|-------------------------------------------------------------------------|
G|-------------------------------------------------------------------------|
C|-------------------------------------------------------------------------|
F|-------------------------------------------------------------------------|
A|------0-0--------0-0----------------0-0-0---0-0-0---0-0-0----------------|
D|------0-0--------0-0----------------0-0-0---0-0-0---0-0-0----------------|
pm. . . . . . . . . . . . . .

Guitar 1
C|------------------------------------------------------------------17~~~--|
G|------------------------------------------------------15------15---------|
C|-------------------------------------------12------12-----12-------------|
F|-3-3--------3-3--------3-3-------------10------10------------------------|
A|-1-1--------1-1--------1-1--------/8-------------------------------------|
D|-------------------------------------------------------------------------|
pm.. . . . . .

Guitar 2
C|------------------------------------------------------------------22~~~--|
G|------------------------------------------------------20------20---------|
C|------5--5--------5-5----------------------17------17-----17-------------|
F|---3--3--3--------3-3------------------15------15------------------------|
A|---1-----------------------------/13-------------------------------------|
D|-------------------------------------------------------------------------|
pm. . . . . .

Guitar 1
C|-------13-------13-------13---13----13------13-------13-----13---------12|
G|----17-------17-------17---------17------17-------17------17---13----13--|
C|----------------------------17------------------------------------12-----|
F|-------------------------------------------------------------------------|
A|-------------------------------------------------------------------------|
D|-0-0------0-0------0-0-----------------0-0------0-0-----0-0--------------|
pm.. . . . . . . . . . . .

Guitar 2
C|-------------------------------------------------------------------------|
G|-------------------------------------------------------------------------|
C|-7-----------------5-----------------7-----------------5-----------------|
F|-7-----------------5-----------------7-----------------5-----------------|
A|-5-----------------3-----------------5-----------------3-----------------|
D|-------------------------------------------------------------------------|

Guitar 1
C|-------------------------------------------------------------------------|
G|-------------------------------------------------------------------------|
C|-------------------------------------------------------------------------|
F|-------------------------------------------------------------------------|
A|-0-0--------0-0--------0-0----------00000---00000---00000----------------|
D|-0-0--------0-0--------0-0----------00000---00000---00000----------------|
pm.. . . . . . ..... ..... .....

Guitar 2
C|-------------------------------------------------------------------------|
G|-------------------------------------------------------------------------|
C|-------------------------------------------------------------------------|
F|-------------------------------------------------------------------------|
A|------0-0--------0-0----------------00000---00000---00000----------------|
D|------0-0--------0-0----------------00000---00000---00000----------------|
pm. . . . . ..... ..... .....

Guitar 1
C|-------------------------------------------------------------------------|
G|-------------------------------------------------------------------------|
C|-------------------------------------------------------------------------|
F|-3-3-----3-3-----3-3-----------------------------------------------3--5--|
A|-1-1-----1-1-----1-1------11111---33333---55555---77777------------1--3--|
D|---------------------------------------------------------3-0-2-2-0-------|
pm.. . . . . . ..... ..... ..... ..... . . . . .

Guitar 2
C|-------------------------------------------------------------------------|
G|-------------------------------------------------------------------------|
C|-----5-5-----5-5---------------------------------------------------------|
F|-----3-3-----3-3---------------------------------------------------3--5--|
A|--1-----------------------11111---11111---11111---33333------------1--3--|
D|---------------------------------------------------------3-0-2-2-0-------|

Guitar 1
C|-------------------------------------------------------------------------|
G|-------------------------------------------------------------------------|
C|-------------------------------------------3----------5-----------3------|
F|-------------------------------------------3----------3-----------3------|
A|-----5---5h6-5------5---5-6~~----5---5--6----6--5--6-----6--5--6-----6---|
D|-0-0---0--------0-0---0------0-0---0-------------------------------------|
pm.. . . . . . . . . . . . . . . .

Guitar 2
C|-------------------------------------------------------------------------|
G|------------------------------------------10---------10------------------|
C|------------------------------------------10---------10-----------7------|
F|-----7---7h8-7------7---7-8~~----7---7-10----10-7-10----10--7--10----10--|
A|-------0--------------0--------------------------------------------------|
D|-0-0------------0-0----------0-0---0-------------------------------------|
pm.. . . . . . . . . . . . . . . . .

Guitar 1
C|-------------------------------------------------------------------------|
G|-------------------------------------------------------------------------|
C|-------------------------------------------------------------------------|
F|-------------------------------------------------------------------------|
A|-----5---5h6-5------5---5-6*~~------5---5h6-5-0---5----7----8----10------|
D|-0-0---0--------0-0---0---------0-0---0-----------5----7----8----10------|
pm.. . . . . . . . .

Guitar 2
C|-------------------------------------------------------------------------|
G|-------------------------------------------------------------------------|
C|-------------------------------------------------------------------------|
F|-----7---7h8-7------7---7-8*~~------7---7*h8*-7*-------------------------|
A|--------------------------------------------------5----7----8----10------|
D|-0-0---0--------0-0---0---------0-0---0-----------5----7----8----10------|
pm.. . . . . . . . .

Guitar 1
C|-------------------------------------------------------------------------|
G|-------------------------------------------------------------------------|
C|-------14-------14----14-------17----------------------15-------15----15-|
F|-12-12----12-12----12----15-15----15-------17----13-13----13-13----13----|
A|-------------------------------------15-15----15-------------------------|
D|-------------------------------------------------------------------------|

Guitar 1 (cont'd)
C|-------------------------------------------------------------------------|
G|-------------------------------------------------------------------------|
C|-------------------------------------------------------------------------|
F|-------15----------12-12-------------------------------------------------|
A|-13-13----13/13-10-------------------------------------------------------|
D|-------------------------------------------------------------------------|

Guitar 2
C|-------------------------------------------------------------------------|
G|-------------------------------------------------------------------------|
C|-------------------------------------------------------------------------|
F|12-12-15-12-12-15-12-15/15-15-19-15-14-14-17-14-13-13-17-13-13-17-13-17--|
A|-------------------------------------------------------------------------|
D|-------------------------------------------------------------------------|

Guitar 2 (cont'd)
C|-------------------------------------------------------------------------|
G|-------------------------------------------------------------------------|
C|-------------------15\14-------------------------------------------------|
F|----------------12-------------------------------------------------------|
A|-13-13-17-13-10----------------------------------------------------------|
D|-------------------------------------------------------------------------|

Guitar 1
C|-------------------------------------------------------------------------|
G|-------------------------------------------------------------------------|
C|-------14-------14----14-------17----------------------15-------15----15-|
F|-12-12----12-12----12----15-15----15-------17----13-13----13-13----13----|
A|-------------------------------------15-15----15-------------------------|
D|-------------------------------------------------------------------------|

Guitar 1 (cont'd)
C|-------------------------------------------------------------------------|
G|-------------------------------------------------------------------------|
C|-------------------------------------------------------------------------|
F|-------15----------12-12-------------------------------------------------|
A|-13-13----13/13-10-------------------------------------------------------|
D|-------------------------------------------------------------------------|

Guitar 2
C|-------------------------------------------------------------------------|
G|-------------------------------------------------------------------------|
C|-------------------------------------------------------------------------|
F|12-12-15-12-12-15-12-15/15-15-19-15-14-14-17-14-13-13-17-13-13-17-13-17--|
A|-------------------------------------------------------------------------|
D|-------------------------------------------------------------------------|

Guitar 2 (cont'd)
C|-------------------------------------------------------------------------|
G|-------------------------------------------------------------------------|
C|-------------------17\16-------------------------------------------------|
F|----------------14-------------------------------------------------------|
A|-13-13-17-13-12----------------------------------------------------------|
D|-------------------------------------------------------------------------|


[Chorus]

Guitar 1
C|-------------------------------------------------------------------------|
G|-------------------------------------------------------------------------|
C|-------------------------2-----------------------------------------------|
F|-1-----------------------2-----------------------0-----------------------|
A|-1-----------------------0-----------------------0-----------------------|
D|-1-----------------------------------------------0-----------------------|

Guitar 2
C|-------------------------------------------------------------------------|
G|-------------------------------------------------------------------------|
C|-------------------------------------14----------------------------------|
F|-13-15-14-15----15-14-15-12-15-14-15----15-14-15-12-15-14-15----14-15----|
A|-------------15----------------------------------------------15----------|
D|-------------------------------------------------------------------------|

Guitar 1
C|-------------------------------------------------------------------------|
G|-------------------------------------------------------------------------|
C|-------------5-----------------------------------2-----------------------|
F|-3-----------3-----------1-----------------------2-----------------------|
A|-3-----------------------1-----------------------0-----------------------|
D|-3-----------------------1-----------------------------------------------|

Guitar 2
C|-------------------------------------------------------------------------|
G|-------------------------------------------------------------------------|
C|-------------17----------------------------------------------14----------|
F|-12-15-14-15----15-14-15-13-15-14-15----15-14-15-12-15-14-15----15-14-15-|
A|-------------------------------------15----------------------------------|
D|-------------------------------------------------------------------------|

Guitar 1
C|-------------------------------------------------------------------------|
G|-------------------------------------------------------------------------|
C|-------------------------------------------------------------------------|
F|-0-----------------------------------5-----------------------------------|
A|-0------------------------X--X----X--3-----------------------------------|
D|-0------------------17\---X--X----X--------5*----------------------------|

guitar 2
C|-------------------------------------------------------------------------|
G|-------------------------------------------------------------------------|
C|-------------------------------------15----------------------------------|
F|-12-15-14-15----15-14-15-12-15-14-15----15-14-15-------------------------|
A|-------------15----------------------------------------------------------|
D|-------------------------------------------------------------------------|

Guitar 1
C|-------------------------------------------------------------------------|
G|-------------------------------------------------------------------------|
C|-------------------------2-----------------------------------------------|
F|-1-----------------------2-----------------------0-----------------------|
A|-1-----------------------0-----------------------0-----------------------|
D|-1-----------------------------------------------0-----------------------|

Guitar 2
C|-------------------------------------------------------------------------|
G|-------------------------------------------------------------------------|
C|-------------------------------------14----------------------------------|
F|-13-15-14-15----15-14-15-12-15-14-15----15-14-15-12-15-14-15----14-15----|
A|-------------15----------------------------------------------15----------|
D|-------------------------------------------------------------------------|

Guitar 1
C|-------------------------------------------------------------------------|
G|-------------------------------------------------------------------------|
C|-------------5-----------------------------------2-----------------------|
F|-3-----------3-----------1-----------------------2-----------------------|
A|-3-----------------------1-----------------------0-----------------------|
D|-3-----------------------1-----------------------------------------------|

Guitar 2
C|-------------------------------------------------------------------------|
G|-------------------------------------------------------------------------|
C|-------------17----------------------------------------------14----------|
F|-12-15-14-15----15-14-15-13-15-14-15----15-14-15-12-15-14-15----15-14-15-|
A|-------------------------------------15----------------------------------|
D|-------------------------------------------------------------------------|

Guitar 1
C|---------------------------------------------------------13---------13\--|
G|------------------------------------------------------17---------17------|
C|-------------------------------------------------------------------------|
F|-0-----------------------3-----------5-----------------------------------|
A|-0-----------------------3-----------3-----------------------------------|
D|-0------------------17\--3-------------------------0-0-------0-0---------|

guitar 2
C|-------------------------------------------------------------------------|
G|-------------------------------------------------------------------------|
C|-------------------------------------15----------------------------------|
F|-12-15-14-15----15-14-15-12-15-14-15----15-14-15-------------------------|
A|-------------15------------------------------------0-0-------0-0---------|
D|---------------------------------------------------0-0-------0-0---------|


[Verse]

Guitar 1
C|-------------------------------------------------------------------------|
G|-------------------------------------------------------------------------|
C|-------------------------------------------------------------------------|
F|-------------------------------------------------------------------------|
A|-0-0--------0-0--------0-0----------0-0-0---0-0-0---0-0-0----------------|
D|-0-0--------0-0--------0-0----------0-0-0---0-0-0---0-0-0----------------|
pm.. . . . . . . . . . . . . . .

Guitar 2
C|-------------------------------------------------------------------------|
G|-------------------------------------------------------------------------|
C|-------------------------------------------------------------------------|
F|-------------------------------------------------------------------------|
A|------0-0--------0-0----------------0-0-0---0-0-0---0-0-0----------------|
D|------0-0--------0-0----------------0-0-0---0-0-0---0-0-0----------------|
pm. . . . . . . . . . . . . .

Guitar 1
C|-------------------------------------------------------------22--(22)----|
G|-------------------------------------------------------20----15--(15)----|
C|-------------------------------------------17--(17)----12----------------|
F|-3-3--------3-3--------3-3------------15---10--(10)----------------------|
A|-1-1--------1-1--------1-1-------13---10---------------------------------|
D|----------------------------------8--------------------------------------|
pm.. . . . . .

Guitar 2
C|------------------------------------------------------------------22~~~--|
G|------------------------------------------------------20------20---------|
C|------5--5--------5-5----------------------17------17-----17-------------|
F|---3--3--3--------3-3------------------15------15------------------------|
A|---1-----------------------------/13-------------------------------------|
D|-------------------------------------------------------------------------|
pm. . . . . .


Guitar 1
C|-------13-------13-------13---13----13------13-------13-----13---------12|
G|----17-------17-------17---------17------17-------17------17---13----13--|
C|----------------------------17------------------------------------12-----|
F|-------------------------------------------------------------------------|
A|-------------------------------------------------------------------------|
D|-0-0------0-0------0-0-----------------0-0------0-0-----0-0--------------|
pm.. . . . . . . . . . . .

Guitar 2
C|-------------------------------------------------------------------------|
G|-------------------------------------------------------------------------|
C|--------------------------------------------------------8----------------|
F|-------------------3-------------------2----------------8----------------|
A|-0-----------------3-------------------2----------------6----------------|
D|-0-----------------3-------------------2---------------------------------|

Guitar 1
C|-------------------------------------------------------------------------|
G|-------------------------------------------------------------------------|
C|-------------------------------------------------------------------------|
F|-------------------------------------------------------------------------|
A|-0-0--------0-0--------0-0----------00000---00000---00000----------------|
D|-0-0--------0-0--------0-0----------00000---00000---00000----------------|
pm.. . . . . . ..... ..... .....

Guitar 2
C|-------------------------------------------------------------------------|
G|-------------------------------------------------------------------------|
C|-------------------------------------------------------------------------|
F|-------------------------------------------------------------------------|
A|------0-0--------0-0----------------00000---00000---00000----------------|
D|------0-0--------0-0----------------00000---00000---00000----------------|
pm. . . . . ..... ..... .....

Guitar 1
C|-------------------------------------------------------------------------|
G|-------------------------------------------------------------------------|
C|-------------------------------------------------------------------------|
F|-3-3-----3-3-----3-3--------------------------------------------------3/5|
A|-1-1-----1-1-----1-1--11111-33333-55555--77777------------------------1/3|
D|-----------------------------------------------3-0-2-0-2-0-1-0-3-0-2-0---|
pm.. . . . . . ..... ..... ..... ..... . . . . . . . . . . . .

Guitar 2
C|-------------------------------------------------------------------------|
G|-------------------------------------------------------------------------|
C|-----5-5-----5-5---------------------------------------------------------|
F|-----3-3-----3-3------------------------------------------------------3/5|
A|--1-------------------11111-11111-11111-33333-------------------------1/3|
D|-----------------------------------------------3-0-2-0-2-0-1-0-3-0-2-0---|
pm. . . . . . ..... ..... ..... ..... . . . . . . . . . . . .


[Chorus]

Guitar 1
C|-------------------------------------------------------------------------|
G|-------------------------------------------------------------------------|
C|-------------------------2-----------------------------------------------|
F|-1-----------------------2-----------------------0-----------------------|
A|-1-----------------------0-----------------------0-----------------------|
D|-1-----------------------------------------------0-----------------------|

Guitar 2
C|-------------------------------------------------------------------------|
G|-------------------------------------------------------------------------|
C|-------------------------------------14----------------------------------|
F|-13-15-14-15----15-14-15-12-15-14-15----15-14-15-12-15-14-15----14-15----|
A|-------------15----------------------------------------------15----------|
D|-------------------------------------------------------------------------|

Guitar 1
C|-------------------------------------------------------------------------|
G|-------------------------------------------------------------------------|
C|-------------5-----------------------------------2-----------------------|
F|-3-----------3-----------1-----------------------2-----------------------|
A|-3-----------------------1-----------------------0-----------------------|
D|-3-----------------------1-----------------------------------------------|

Guitar 2
C|-------------------------------------------------------------------------|
G|-------------------------------------------------------------------------|
C|-------------17----------------------------------------------14----------|
F|-12-15-14-15----15-14-15-13-15-14-15----15-14-15-12-15-14-15----15-14-15-|
A|-------------------------------------15----------------------------------|
D|-------------------------------------------------------------------------|

Guitar 1
C|-------------------------------------------------------------------------|
G|-------------------------------------------------------------------------|
C|-------------------------------------------------------------------------|
F|-0-----------------------------------5-----------------------------------|
A|-0------------------------X--X----X--3-----------------------------------|
D|-0------------------17\---X--X----X--------5*----------------------------|

guitar 2
C|-------------------------------------------------------------------------|
G|-------------------------------------------------------------------------|
C|-------------------------------------15----------------------------------|
F|-12-15-14-15----15-14-15-12-15-14-15----15-14-15-------------------------|
A|-------------15----------------------------------------------------------|
D|-------------------------------------------------------------------------|

Guitar 1
C|-------------------------------------------------------------------------|
G|-------------------------------------------------------------------------|
C|-------------------------2-----------------------------------------------|
F|-1-----------------------2-----------------------0-----------------------|
A|-1-----------------------0-----------------------0-----------------------|
D|-1-----------------------------------------------0-----------------------|

Guitar 2
C|-------------------------------------------------------------------------|
G|-------------------------------------------------------------------------|
C|-------------------------------------14----------------------------------|
F|-13-15-14-15----15-14-15-12-15-14-15----15-14-15-12-15-14-15----14-15----|
A|-------------15----------------------------------------------15----------|
D|-------------------------------------------------------------------------|

Guitar 1
C|-------------------------------------------------------------------------|
G|-------------------------------------------------------------------------|
C|-------------5-----------------------------------2-----------------------|
F|-3-----------3-----------1-----------------------2-----------------------|
A|-3-----------------------1-----------------------0-----------------------|
D|-3-----------------------1-----------------------------------------------|

Guitar 2
C|-------------------------------------------------------------------------|
G|-------------------------------------------------------------------------|
C|-------------17----------------------------------------------14----------|
F|-12-15-14-15----15-14-15-13-15-14-15----15-14-15-12-15-14-15----15-14-15-|
A|-------------------------------------15----------------------------------|
D|-------------------------------------------------------------------------|

Guitar 1
C|-------------------------------------------------------------------------|
G|-------------------------------------------------------------------------|
C|-------------------------------------------------------------------------|
F|-0-----------------------3-----------5-----------------------------------|
A|-0-----------------------3-----------3--------------------6-------6~~~---|
D|-0------------------17\--3---------------------------0-0-----0-0---------|
pm. . . . .

guitar 2
C|-------------------------------------------------------------------------|
G|-------------------------------------------------------------------------|
C|-------------------------------------15----------------------------------|
F|-12-15-14-15----15-14-15-12-15-14-15----15-14-15-------------------------|
A|-------------15-------------------------------------------6-------6~~~---|
D|-----------------------------------------------------0-0-----0-0---------|
pm. . . . .

Guitar 1
C|-------------------------------------------------------------------------|
G|-------------------------------------------------------------------------|
C|------14------14-14-----17----------------15-----15--15------------------|
F|12-12---12-12--12--15-15--15-----17--13-13--13-13--13-------15-------1212|
A|----------------------------15-15--15------------------13-13--13/13-10---|
D|-------------------------------------------------------------------------|

Guitar 2
C|-------------------------------------------------------------------------|
G|-------------------------------------------------------------------------|
C|-------------------------------------------------------------------------|
F|12-12-15-12-12-15-12-15/15-15-19-15-14-14-17-14-13-13-17-13-13-17-13-17--|
A|-------------------------------------------------------------------------|
D|-------------------------------------------------------------------------|

Guitar 2 (cont'd)
C|-------------------------------------------------------------------------|
G|-------------------------------------------------------------------------|
C|-------------------15\14-------------------------------------------------|
F|----------------12-------------------------------------------------------|
A|-13-13-17-13-10----------------------------------------------------------|
D|-------------------------------------------------------------------------|

Guitar 1
C|-------------------------------------------------------------------------|
G|-------------------------------------------------------------------------|
C|------14------14-14-----17----------------15-----15--15------------------|
F|12-12---12-12--12--15-15--15-----17--13-13--13-13--13-------15-------1414|
A|----------------------------15-15--15------------------13-13--13-15-12---|
D|-------------------------------------------------------------------------|

Guitar 2
C|-------------------------------------------------------------------------|
G|-------------------------------------------------------------------------|
C|-------------------------------------------------------------------------|
F|12-12-15-12-12-15-12-15/15-15-19-15-14-14-17-14-13-13-17-13-13-17-13-17--|
A|-------------------------------------------------------------------------|
D|-------------------------------------------------------------------------|

Guitar 2 (cont'd)
C|-------------------------------------------------------------------------|
G|-------------------------------------------------------------------------|
C|-------------------17\16-------------------------------------------------|
F|----------------14-------------------------------------------------------|
A|-13-13-17-13-12----------------------------------------------------------|
D|-------------------------------------------------------------------------|


[Solo]

Guitar 1
C|-12b-(12)r-(12)b--(12)r--15b--14b--17-(17)r-(17)b---20b----(20)r--(20)b--|
G|-15b-(15)r-(15)b--(15)r--18b--17b--20-(20)r-(20)b---23b----(23)r--(23)b--|
C|-------------------------------------------------------------------------|
F|-------------------------------------------------------------------------|
A|-------------------------------------------------------------------------|
D|-------------------------------------------------------------------------|

Guitar 2
C|-------------------------------------------------------------------------|
G|-------------------------------------------------------------------------|
C|-------------------------------------------------------------------------|
F|-------------------------------------------------------------------------|
A|-------------------------------------------------------------------------|
D|--2-2-5-2-2-5-2-5/5-5-8-5-4-4-7-4-3-3-7-3-3-7-3-7-0-0-7-0-0-2-0-3--------|

Guitar 1,2
C|-19----------19*/17---------19*--22----------22--21----------21----------|
G|-----17--17----------15/17-----------20--20----------19--19--------------|
C|-------------------------------------------------------------------------|
F|-------------------------------------------------------------------------|
A|-------------------------------------------------------------------------|
D|-------------------------------------------------------------------------|

guitar 1,2
C|-20-17-19-20-19-17-------------------------------------------------------|
G|-------------------20-18-17-18-20-18-17----------------------------------|
C|----------------------------------------19-17-16-17-16-------------------|
F|-------------------------------------------------------19-17-15-17-19----|
A|-------------------------------------------------------------------------|
D|-------------------------------------------------------------------------|

Guitar 1,2 (cont'd)
C|-------------------17-19-------------------------------------------------|
G|----------17-18-20-------------------------------------------------------|
C|-16-17-19----------------------------------------------------------------|
F|-------------------------------------------------------------------------|
A|-------------------------------------------------------------------------|
D|-------------------------------------------------------------------------|

guitar 1
C|--17b-(17)r-(17)b-17b-(17)r-(17)b---15---------17-13-------/20-17--------|
G|------------------17b-(17)r-(17)b------17/------------------------18-----|
C|--------------------------------------------3+-------17-14-----------17--|
F|-------------------------------------------------------------------------|
A|-------------------------------------------------------------------------|
D|-------------------------------------------------------------------------|

Guitar 1 (cont'd)
C|-/13-10-------17-13------------------------------------------------------|
G|--------------------15---------------------------------------------------|
C|--------14-10----------13------------------------------------------------|
F|-------------------------------------------------------------------------|
A|-------------------------------------------------------------------------|
D|-------------------------------------------------------------------------|
pm. . .

Guitar 2
C|-------------------------------------------------------------------------|
G|-------------------------------------------------------------------------|
C|-------------------------------------------------------------------------|
F|-------------------------------------------------------------------------|
A|-------------------------------------------------------------------------|
D|--2-2-5-2-2-5-2-5/5-5-8-5-4-4-7-4-3-3-7-3-3-7-3-7-0-0-7-0-0-2-0-3--------|

Guitar 1
C|-------------------------------------------------------------------------|
G|14b-14-12-----14b-14-12--------------------------------------------------|
C|14b-14-12-----14b-14-12-----14p12/10-14p10-14-17p14-17-19p17-19-21p19-21-|
F|---------14-12---------14-12---------------------------------------------|
A|-------------------------------------------------------------------------|
D|-------------------------------------------------------------------------|
pm. . . . .

Guitar 2
C|-------------------------------------------------------------------------|
G|-------------------------------------------------------------------------|
C|-------------------------------------------------------------------------|
F|-------------------------------------------------------------------------|
A|--------------------------------3--3-3-3-3-3-3-3--0-0-0-0-0-0-0-0--------|
D|2-2-5-2-2-5-2-5/5-5-8-5-4-4-7-4-3--3-3-3-3-3-3-3--0-0-0-0-0-0-0-0--------|
pm. . . . . . . . . . . . . . . .


[Chorus]

Guitar 1
C|-------------------------------------------------------------------------|
G|-------------------------------------------------------------------------|
C|-------------------------2-----------------------------------------------|
F|-1-----------------------2-----------------------0-----------------------|
A|-1-----------------------0-----------------------0-----------------------|
D|-1-----------------------------------------------0-----------------------|

Guitar 2
C|-------------------------------------------------------------------------|
G|-------------------------------------------------------------------------|
C|-------------------------------------14----------------------------------|
F|-13-15-14-15----15-14-15-12-15-14-15----15-14-15-12-15-14-15----14-15----|
A|-------------15----------------------------------------------15----------|
D|-------------------------------------------------------------------------|

Guitar 1
C|-------------------------------------------------------------------------|
G|-------------------------------------------------------------------------|
C|-------------5-----------------------------------2-----------------------|
F|-3-----------3-----------1-----------------------2-----------------------|
A|-3-----------------------1-----------------------0-----------------------|
D|-3-----------------------1-----------------------------------------------|

Guitar 2
C|-------------------------------------------------------------------------|
G|-------------------------------------------------------------------------|
C|-------------17----------------------------------------------14----------|
F|-12-15-14-15----15-14-15-13-15-14-15----15-14-15-12-15-14-15----15-14-15-|
A|-------------------------------------15----------------------------------|
D|-------------------------------------------------------------------------|

Guitar 1
C|-------------------------------------------------------------------------|
G|-------------------------------------------------------------------------|
C|-------------------------------------------------------------------------|
F|-0-----------------------------------5-----------------------------------|
A|-0------------------------X--X----X--3-----------------------------------|
D|-0------------------17\---X--X----X--------5*----------------------------|

guitar 2
C|-------------------------------------------------------------------------|
G|-------------------------------------------------------------------------|
C|-------------------------------------15----------------------------------|
F|-12-15-14-15----15-14-15-12-15-14-15----15-14-15-------------------------|
A|-------------15----------------------------------------------------------|
D|-------------------------------------------------------------------------|

Guitar 1
C|-------------------------------------------------------------------------|
G|-------------------------------------------------------------------------|
C|-------------------------2-----------------------------------------------|
F|-1-----------------------2-----------------------0-----------------------|
A|-1-----------------------0-----------------------0-----------------------|
D|-1-----------------------------------------------0-----------------------|

Guitar 2
C|-------------------------------------------------------------------------|
G|-------------------------------------------------------------------------|
C|-------------------------------------14----------------------------------|
F|-13-15-14-15----15-14-15-12-15-14-15----15-14-15-12-15-14-15----14-15----|
A|-------------15----------------------------------------------15----------|
D|-------------------------------------------------------------------------|

Guitar 1
C|-------------------------------------------------------------------------|
G|-------------------------------------------------------------------------|
C|-------------5-----------------------------------2-----------------------|
F|-3-----------3-----------1-----------------------2-----------------------|
A|-3-----------------------1-----------------------0-----------------------|
D|-3-----------------------1-----------------------------------------------|

Guitar 2
C|-------------------------------------------------------------------------|
G|-------------------------------------------------------------------------|
C|-------------17----------------------------------------------14----------|
F|-12-15-14-15----15-14-15-13-15-14-15----15-14-15-12-15-14-15----15-14-15-|
A|-------------------------------------15----------------------------------|
D|-------------------------------------------------------------------------|

Guitar 1
C|-------------------------------------------------------------------------|
G|-------------------------------------------------------------------------|
C|-------------------------------------------------------------------------|
F|-0-----------------------3-----------5-----------------------------------|
A|-0-----------------------3-----------3--------------------6-------6~~~---|
D|-0------------------17\--3---------------------------0-0-----0-0---------|
pm. . . . .

guitar 2
C|-------------------------------------------------------------------------|
G|-------------------------------------------------------------------------|
C|-------------------------------------15----------------------------------|
F|-12-15-14-15----15-14-15-12-15-14-15----15-14-15-------------------------|
A|-------------15-------------------------------------------6-------6~~~---|
D|-----------------------------------------------------0-0-----0-0---------|
pm. . . . .


[Outro]

Guitar 1
C|-------------------------------------------------------------------------|
G|-------------------------------------------------------------------------|
C|------------------------------------------------3----------3---------3---|
F|-----7---7/8--7-------7---7-8-------7-----------3----------3---------3---|
A|-----5---5/6--5-------5---5-6-------5-----5--7----7--5--7----7--5--7---7-|
D|-0-0---0----------0-0---0-------0-0----0---------------------------------|
pm.. . . . . . . . . . . . .

Guitar 2
C|-------------------------------------------------------------------------|
G|----------------------------------------------------------10-------------|
C|------------------------------------------------7---------10---------10-9|
F|-----7---7/8--7-------7---7-8-------7------7-10---7-10--7----10-7-10-----|
A|-----5---5/6--5-------5---5-6-------5--0---------------------------------|
D|-0-0---0----------0-0---0-------0-0--------------------------------------|
pm.. . . . . . . . . . . . . . . . .

Guitar 1
C|-------------------------------------------------------------------------|
G|-------------------------------------------------------------------------|
C|------------------------------------------------3----------3---------3---|
F|-----7---7/8--7-------7-------8*----7-----------3----------3---------3---|
A|-----5---5/6--5-------5-5-5-6-------5-----5--7----7--5--7----7--5--7---7-|
D|-0-0---0----------0-0-----------0-0----0---------------------------------|
pm.. . . . . . . . . . . . . . .

Guitar 2
C|-------------------------------------------------------------------------|
G|----------------------------------------------------------10-------------|
C|------------------------------------------------7---------10---------10-9|
F|-----7---7/8--7-------7-------8*----7------7-10---7-10--7----10-7-10-----|
A|-----5---5/6--5-------5-5-5-6-------5--0---------------------------------|
D|-0-0---0----------0-0-----------0-0--------------------------------------|
pm.. . . . . . . . . . . . . . . . .

Guitar 1
C|-------------------------------------------------------------------------|
G|-------------------------------------------------------------------------|
C|-------------------------------------------------------------------------|
F|-----7---7/8--7-------7---7-8-------7-----------3----------3---------3---|
A|-----5---5/6--5-------5---5-6-------5--0--3--5----5--3--5----5--3--5---3-|
D|-0-0---0----------0-0---0-------0-0--------------------------------------|
pm.. . . . . . . . . . . . .

Guitar 2
C|-------------------------------------------------------------------------|
G|-------------------------------------------------------------------------|
C|-------------------------------------------------------------------------|
F|-----7---7/8--7-------7---7-8-------7----------10---------10*-------10---|
A|-----5---5/6--5-------5---5-6-------5-----7--8----8--7--8----8--7--8---7-|
D|-0-0---0----------0-0---0-------0-0----0---------------------------------|
pm.. . . . . . . . . . . . . . . . . .

Guitar 1
C|-------------------------------------------------------------------------|
G|-------------------------------------------------------------------------|
C|-------------------------------------------------------------------------|
F|-----7---7/8--7-------7---7-8-------7-----------3----------3---------3---|
A|-----5---5/6--5-------5---5-6-------5--0--3--5----5--3--5----5--3--5---3-|
D|-0-0---0----------0-0---0-------0-0--------------------------------------|
pm.. . . . . . . . . . . . .

Guitar 2
C|-------------------------------------------------------------------------|
G|-------------------------------------------------------------------------|
C|-------------------------------------------------------------------------|
F|-----7---7/8--7-------7---7-8-------7----------10---------10*-------10---|
A|-----5---5/6--5-------5---5-6-------5-----7--8----8--7--8----8--7--8---7-|
D|-0-0---0----------0-0---0-------0-0----0---------------------------------|
pm.. . . . . . . . . . . . . . . . . .


************************************

| (n) Ghost note
| h Hammer-on
| p Pull-off
| b Bend
| / Slide up
| \ Slide down
| ~ Vibrato
| PM Palm Mute

************************************
Song info
Are You Dead Yet
Children of Bodom
2001
  • Rock
  • Melodic Death Metal
Alternative tracks
Similar songs
In The Shadows - Children of Bodom
Next In Line - Children of Bodom
The Nail - Children of Bodom
Hate Me - Children of Bodom

Hi! Hope you enjoy backing track experience.
If you want to help us in the development of the project, feel free to donate!