Heartbreak Station - Cinderella
00:00 / 00:00
Tabs and lyrics
Tunning: Standard (E A D G B e)
#----------------------------------PLEASE NOTE---------------------------------#
#This file is the author's own work and represents their interpretation of the #
#song. You may only use this file for private study, scholarship, or research. #
#------------------------------------------------------------------------------##
Received: from nevada.edu (animal-farm.nevada.edu) by redrock.nevada.edu (5.65c/M1.4)
with SMTP id ; Wed, 16 Sep 1992 14:52:37 -0700
Received: from ns-mx.uiowa.edu by animal-farm.nevada.edu. id aa11783;
16 Sep 92 14:51 PDT
Received: from umaxc.weeg.uiowa.edu by ns-mx.uiowa.edu (5.64.jnf/920408)
on Wed, 16 Sep 92 16:50:47 -0500 id AA05898 with SMTP
Received: by umaxc.weeg.uiowa.edu (5.61.jnf/920629)
on Wed, 16 Sep 92 16:50:33 -0500 id AA07548
Date: Wed, 16 Sep 92 16:50:33 -0500
From: "John W. Ross"
Message-Id:
To: jamesb@nevada.edu


I'm not going to tab this song since all the chords are in first
position and you can find all these chords in your Mel Bay books.

Heartbreak Station
Cinderella

Intro G (a b) C (b a) D C G/B
Verse G D e D C D G D
First Chorus e C G D e C G D e C
Repeat Intro
Verse
Second Chorus e C G D E C G D e C D
Bridge b G D
Solo over Chorus
Intro
Chorus
Intro

That should have it. (a b) and (b a) indicate walk ups
i. e. single notes to join two chords there is also a little hammer on
thing at the end of the Intro but I don't usually play that as on the
record.
(a b) 5th string open to 5th string 2nd fret.
(b a) the reverse of (a b).
I did this just sitting in my bedroom with my guitar as I don't
have the recording so if I have left anything out drop me a line at:
jwross@umaxc.weeg.uiowa.edu and I'll help you out, in fact if there is
anything about the guitar that you wanna chat about drop me a line.

NOTE NOTE NOTE NOTE NOTE NOTE NOTE NOTE NOTE NOTE NOTE NOTE NOTE NOTE
I don't have a lyricist for my current band and we are in need of
original tunes so any of you out there who would be interested in
submitting songs or lyrics that I will turn into songs please drop me
a line. We are a hard edge acoustic kinda thing. In the style of:
Indigo girls, Linda Ronstadt, Melissa Etheridge.


#----------------------------------PLEASE NOTE---------------------------------#
#This file is the author's own work and represents their interpretation of the #
#song. You may only use this file for private study, scholarship, or research. #
#------------------------------------------------------------------------------##
Received: from animal-farm.nevada.edu (animal-farm.nevada.edu [131.216.1.11]) by redrock.nevada.edu (8.6.4/8.6.4) with ESMTP id FAA27256 for ; Mon, 6 Dec 1993 05:11:17 -0800
Received: from athmail1 (athmail1.causeway.qub.ac.uk [143.117.254.4]) by animal-farm.nevada.edu (8.6.4/8.6.4) with SMTP id FAA12679 for ; Mon, 6 Dec 1993 05:11:13 -0800
Received: by athmail1
id AA18308; Mon, 6 Dec 93 13:07:30 GMT
Received: by titanic (5.57/4.7) id AA01243; Mon, 6 Dec 93 13:07:28 GMT
Message-Id:
To: jamesb@animal-farm.nevada.edu
Subject: HeartbreakStation.TAB by Cinderella
Date: Mon, 06 Dec 93 13:07:28 GMT
From: Dirt Bird


This was the first song I ever worked out on the guitar, so it's a
bit basic: I only have the intro + chords. The archive already has
the chords, so here's the intro.
Enjoy
Paul Hutchinson


Acoustic 12 string guitar:

Play twice
G Cs2 D/F#
+ + + + + + + + + + + +
+-----------------+-----------------+---------------+
|-----------------|-----------------|---------------|
|-----0---0-------|-----0---0-------|-----2-------2-|
|---0---0---0-----|---0---0---0-----|---------0-----|
|-------------0-2-|-3---------------|---0---0---0---|
+-3---------------+-------------0-3-+-2-------------+

Cs2 G/B NC
+ + + +
+-------------------------+
|-------------------------|
|-------0--------0--------|
|----0--------0--------0--|
|-3--------2--------0h2---|
+-------------------------+
Tunning: Nashville (E A D G B E)
tuning:standard
tabbed by:a crazy teenage rock and roll fan
intro riff
E|-----------3---------------3--------------5-------------------------|
B|-------------3---------------3--------------3-----------------------|
G|-------0---------------0---------------2------0-------0-----0-------|
D|-----0---0-----------0---0-----------0---0------0---0-----0-------0-|
A|---------------0-2-3------------------------------3-----2-----0h2---|
E|---3---------------------------0-3-2--------------------------------|
play this twice

verse
E|---3--2--2--2-2-----------2---2-2---2-2-----------2-2-2--3-3-3---2-|
B|---0--3--3--3-3-----------3---3-3---3-3--1---1-1--3-3-3--0-0-0---3-|
G|---0--2--2--2-2-----------2---2-2---2-2--0---0-0--2-2-2--0-0-0---2-|
D|---0-------------2---2-2-----------------2---2-2---------0-0-0-----|
A|---2-------------2---2-2-----------------3---3-3---------3-3-3-----|
E|-3-3-------------0---0-0-----------------0---0-0---------2-2-2-----|

chorus
E|-------------------------1--3--1-1---2--2--2-2-|
B|-------------1--1--1-1---0--0--0-0---3--3--3-3-|
G|-------------0--0--0-0---0--0--0-0---2--2--2-2-|
D|-2--2--2-2---2--2--2-2---0--0--0-0-------------|
A|-2--2--2-2---3--3--3-3---2--2--2-2-------------|
E|-0--0--0-0---0--0--0-0---3--3--3-3-------------|
play this twice

chorus cont.
E|-----------------|
B|-------------1---|
G|-------------0---|
D|-2--2--2-2---2---|
A|-2--2--2-2---3---|
E|-0--0--0-0---0---|

then play the intro riff, verse and chorus again.

bridge
E|-------1-1-1-2-2-2-------------|
B|-4-4-4-0-0-0-3-3-3-1-1-1-1-1-1-|
G|-4-4-4-0-0-0-2-2-2-0-0-0-0-0-0-|
D|-4-4-4-0-0-0-------2-2-2-2-2-2-|
A|-2-2-2-2-2-2-------3-3-3-3-3-3-|
E|-------3-3-3-------0-0-0-0-0-0-|

then play the chorus over the solo. then play the intro riff, chorus twice, and then the
riff for the end.

LONG LIVE ROCK AND ROLL!
Song info
Heartbreak Station
Cinderella
2001
  • Rock
  • Glam
  • Hard Rock
  • Southern Rock
Similar songs
Brain Stew - Green Day
Shot In The Dark - Ozzy Osbourne
Working Class Man - Jimmy Barnes
Cant This Be Love - Van Halen
Cryin - Joe satriani

Hi! Hope you enjoy backing track experience.
If you want to help us in the development of the project, feel free to donate!