One Last Breath - Creed
00:00 / 00:00
Tabs and lyrics
Tunning: Nashville (E A D G B E)
One Last Breath
By: Creed
Album: Weathered
Tabbed by: Aarron Williams
E-mail: silverfishgpm@hotmail.com


[Riff 1]

E|-2----5----0h2------|------------------------|-----------------|-------------3-2--|
B|----------------3---|---2-3-3h5----5p3p2h3---|-0---3---2h3-----|---------3--------|
G|------------------2-|------------------------|-------------4---|-----0-----2------|
D|-0-0----0-----------|------------------------|---------------0-|---0---0----------|
A|--------------------|-0----------0---------0-|---2---2---------|------------------|
E|--------------------|------------------------|-----------------|-3----------------|

E|-2----3-2-0h2p0-----|----------------------|---------2--------|-----------3---------|
B|--------------------|---------2-2h3p2------|-------2---2------|-------------3-------|
G|--------------------|------2-------------0-|-----4-------4----|--------4------4-----|
D|-0-0------------0---|---2-------------4----|---4-----------4--|------5----------5---|
A|------------------4-|-0--------------------|-2----------------|----5----------------|
E|--------------------|----------------------|------------------|--3------------------|


[Riff 2a] - Strumming patterns not shown

E|----------------------3-------------------------------------------|
B|---------------2------3--------------------------------------------|
G|-7------3------4------4---------------------------------------------|
D|-7------4------4------5---------------------------------------------|
A|-5------4------2------5---------------------------------------------|
E|--------2-------------3--------------------------------------------|


[Riff 2b] - Same as Riff 2a, only with distortion


[Riff 3]

E|--------------------------------------------------------------------|
B|--------------------------------------------------------------------|
G|-4-------------4----------------------------------------------------|
D|-4------5------4------5---------------------------------------------|
A|-2------5------2------5---------------------------------------------|
E|--------3-------------3--------------------------------------------|


[Riff 4]

E|--------------------------------------------------------------------|
B|--------------------------------------------------------------------|
G|---------7---------------------------------------------------------|
D|-2---5---7----7----9----5-------------------------------------------|
A|-2---5---5----7----9----5-------------------------------------------|
E|-0---3--------5----7----3------------------------------------------|


[Riff 5]

E|-2----5----0h2------------------------------------------------------------------3---|
B|----------------3------2-3-3h5---3h5p3p2h3-0-----3----2h3-------------------3-------|
G|------------------2-------------------------------------------4---------0-----2-----|
D|-0-0----0-------------------------------------------------------0-----0---0---------|
A|---------------------0----------0--------------2--2--------2------------------------|
E|--------------------------------------------------------------------3---------------|

Riff 1 3x
Riff 2a 2x
Riff 1 3x
Riff 2b 4x
Riff 3 1x
Riff 4 2x
Riff 2a 2x
Riff 2b 4x
Riff 5 1x
Tunning: Standard (E A D G B e)
Author/Artist: Creed
Title: One Last Breath
Album: Weathered
Tuning: Standard (E A D G B E)
Transcribed by: Adam Strachn
Email: CookieMonster912@hotmail.com
Submitted By: IcEmAn

Notes:

Verse – play with feeling. Listen to the song carefully for notes.

Chorus – Listen to song for strumming pattern.

Bridge – Listen to song CAREFULLY for chords placement.

Violins/Clean Chorus – Just listen to the song for duration of notes.


Intro – (fingerpicked)
-2-----5-----0h2---------------------------------|
------------------3--------2h3h5-----3h5p3p2-----|
---------------------2------------------------2--|
-0--0-----0--------------------------------------|
------------------------0---------0--------------|
-------------------------------------------------|

------------------------------------------3--2--|
-------3-----2h3--0-----------------2-----------|
---------------------0--------0-----------------|
---------------------------0-----0-----0--------|
-2--2-----2-------------------------------------|
------------------------3-----------------------|

-2-----3-----2--2h3p2---------------------------------|
-----------------------3--------------2--2h3p2-----0--|
--------------------------0--------2------------2-----|
-0--0-----0---------------------2--------2------------|
-----------------------------0------------------------|
------------------------------------------------------|

--------------2-----------------------3--------|
-----------2-----2-----------------------3-----|
-------4------------4-----------------------0--|
----4------------------4--------0--------------|
-2---------------------------2-----2-----------|
--------------------------3--------------------|


Chorus – (clean)
-2------------------0------------|
-3--------0---------3---------0--|
-2--------3---------4---------4--| Strum
-0--------4---------4---------5--| Chords
----------4---------2---------5--|
----------2-------------------3--|


The go into the verse


Dirty Chorus -
---------------------------------|
---------------------------------|
--------------------4------------| Strum
-7--------4---------4---------5--| Chords
-5--------4---------2---------5--|
----------2-------------------3--|


Bridge – (listen to song for strumming) “Sad eyes follow me”
---------------------------------------------------------|
---------------------------------------------------------|
---------4-----------------7-----------------4-----------|
-2-------4--------7--------7--------7--------4--------5--|
-2-------2--------7--------5--------7--------2--------5--|
-0----------------5-----------------5-----------------3--|


Interlude -
(Violins)
------------------------------------------|
------------------------------------------|
------4~~------2~~------------------------|
-4~~----------------5~---4~~--------------|
-------------------------------4~~---5~~--|
------------------------------------------|

(Guitar)
-2-----------------0-------------------3--|
-3-----------------3-------------------3--|
-2-----------------4-------------------0--|
-0-----------------4-------------------0--|
-------------------2-------------------2--|
---------------------------------------3--|

Play clean chorus chords

Then dirty chorus

Then end on the verse riffs

Tunning: Standard (E A D G B e)
Author/Artist: Creed
Title: One Last Breath
Album: Weathered
Transcribed by: Andrew Shantz and Steve Rose
Email: ashantz@sympatico.ca

Hey everyone, this is my very first tab. I 99.9% sure it's correct. I used a special program to slow down the verse section in order to catch all the right notes. I hope you like it. If you have any questions, comments, or corrections be sure to let me know. Thanks.


Verse - (clean)
-2---5---0h2-------------------------------------------------------3-2-|
-------------3-----2-3-3h5---5h3h2-3---0---3---2h3h0-----------3-------|
---------------0-------------------------------------0-----0-----2-----|
-0-0---0-------------------------------------------------0---0---------|
-----------------0---------0---------0---2---2-------------------------|
-------------------------------------------------------3---------------|


-2---3---2h3h2---------------------------------2---------------3-------|
---------------3---------2-2h3h2-------------2---2---------------3-----|
-----------------------2---------2---0-----4-------4-0-------0-----0---|
-0-0---0-------------2-------------4-----4-----------------0---------0-|
-----------------4-0-------------------2-----------------2-------------|
-------------------------------------------------------3---------------|

Chorus #1 - (clean)
-2--------0--------2--------3-|
-3--------0--------2--------3-|
-2--------3--------4--------0-|
-0--------4--------4--------0-|
----------4--------2--------2-|
----------2-----------------3-|

Chorus #2 - (w/distortion)
------------------------------|
------------------------------|
-7-----------------4----------|
-7--------4--------4--------5-|
-5--------4--------2--------5-|
----------2-----------------3-|

Intro To Bridge - (w/distortion)
-------------|
-------------|
-4-----------|
-4---------5-|
-2---------5-|
-----------3-|

Bridge - (w/distortion)
-----------------|------------------|
-----------------|------------------|
---------------7-|--------7---------|
-2------7------7-|-2------7-------5-|
-2------7------5-|-2------5-------3-|
-0------5--------|-0--------------3-|

Outro - (clean)
-2---5---2h0---------------------------------------------------3---|
-------------3-----2-3-3h5---5h3h2-3---0---3---2h3h0-------------3-|
---------------0-------------------------------------0-----0-------|
-0-0---0-------------------------------------------------0---0-----|
-----------------0---------0---------0---2---2---------------------|
-------------------------------------------------------3-----------|
|start to slow down

Verse x3
Chorus #1 (0:47) x2
Verse (1:02) x3
Chorus #2 (1:47) X4
Intro To Bridge (2:17) x2
Bridge (2:24) x2
Chorus #1 (2:54) x2
Chorus #2 (3:09) X4
Outro (3:41)
Tunning: Nashville (E A D G B E)
One Last Breath
By: Creed
Album: Weathered
Tabbed by: Mike Carlozzi
E-mail: lightstemplar@aol.com

Riff 1
E|-2----5----0h2-------------------------------------------------------------3-2---|
B|----------------3------2-3-3h5----5p3p2h3----0---3-----2h3-0-----------3---------|
G|------------------2------------------------------------------------0-----2-------|
D|-0-0----0----------------------------------------------------0---0---0-----------|
A|---------------------0----------0----------0-2-2----2----------------------------|
E|---------------------------------------------------------------3-----------------|

Riff 1
E|-2---3---2-0h2------------------------------------2-------------------3----------|
B|----------------3----------2-2h3p2--------------2---2-------------------3--------|
G|-------------------------2-------------0------4--------4-----------0------0------|
D|-0-0---0--------------2-------------4-------4-------------4------0-----------0---|
A|------------------4-0---------------------2--------------------2-----------------|
E|-------------------------------------------------------------3-------------------|

Riff 2
E|-5---5---2-22---2-2---2---3-33---3|
B|-5---5---2-22---2-2---2---3-33---3|
G|-7---7---3-33---3-4---4---4-44---4|
D|-7---7---4-44---4-4---4---5-55---5|
A|-5---5---4-44---4-2---2---5-55---5|
E|-5---5---2-22---2-2---2---3-33---3|

Pick up to Riff 3
E|-2---2-3----3--3333---|
B|-2---2-3----3--3333---|
G|-4---4-4----4--4444---|
D|-4---4-5----5--5555---|
A|-2---2-5----5--5555---|
E|-2---2-3----3--3333---|

Riff 3
E|-0---0---3---3-5---5-5---5-55---5-5---5-7---7-3---3-3---3-33---3|
B|-0---0---3---3-5---5-5---5-55---5-5---5-7---7-3---3-3---3-33---3|
G|-0---0---4---4-7---7-7---7-77---7-6---6-7---7-4---4-4---4-44---4|
D|-2---2---5---5-7---7-7---7-77---7-7---7-9---9-5---5-5---5-55---5|
A|-2---2---5---5-5---5-5---5-55---5-7---7-9---9-5---5-5---5-55---5|
E|-0---0---3---3-5---5-5---5-55---5-5---5-7---7-3---3-3---3-33---3|

Riff 1 3X
Riff 2 2X
Riff 1 3X
Riff 2(distorted) 4X
Pick up to Riff 3 2X
Riff 3 2X
Riff 2 2X
Riff 2(distorted) 4X
Riff 1(first part)1X
Tunning: Standard (E A D G B e)
Band: Creed
Song: One Last Breath
Album: Weathered
Tuning: Standard
Tabbed by: Me
Email: CreedGtrst41@cs.com

Verse (clean)(fingerpicked)

E-2----5----0h2-------------------------------------------------------------------3-2-|
B----------------3------2-3-3h5---3h5p3p2h3-0-----3----2h3------------------3----0----|
G------------------2--------------------------------------------4---------0-----------|
D-0-0----0--------------------------------------------------------0----0-----0--------|
A---------------------0----------0--------------2-2----2------------------------------|
E---------------------------------------------------------------------3---------------|

E-2----3-2-2h3p2--------------------------------------2-------------------3----------|
B------------------3----------2-2h3p2---------------2---2-------------------3--------|
G---------------------------2-------------0-------4--------4------------0------0-----|
D-0-0--------------------2-------------4-------4-------------4--------0----------0---|
A---------------------0---------------------2-----------------------2----------------|
E-----------------------------------------------------------------3------------------|

Chorus (clean)
E--2-----0------0------0-|
B--3-----0------2------0-|
G--2-----3------4------4-|
D--0-----4------4------5-|
A--------4------2------5-|
E--------2-------------3-|

Chorus (distorted)
E----------------------------|
B----------------------------|
G-x-x-7-------------4--------|
D-x-x-7------4------4------5-|
A-x-x-5------4------2------5-|
E------------2-------------3-|

Bridge (distorted)
e---------------------------------------------------------|
B---------------------------------------------------------|
G---------4-----------------7-----------------4-----------|
D-2-------4--------7--------7--------7--------4--------5--|
A-2-------2--------7--------5--------7--------2--------5--|
E-0----------------5-----------------5-----------------3--|

Questions or Comments feel free to email me otherwise have fun its another great song by
a great band.
Tunning: Standard (E A D G B e)
One Last Breath-Creed
Weathered

Gtr. 1
E A D G B E

Gtr. 2
D A D G B E

( ) = harmonic


Intro: Riff A

e-2---5----0h2---------------------------
b--------------3-----2-3h5---5p3p2-3-----
g----------------0-----------------------
d-0-0---0--------------------------------
a------------------0-------0---------0---
e----------------------------------------

e-----------------------------3-2--------
b-----3---2h3-------------3--------------
g-4-----------4-------0-----2------------
d---------------4---0---0----------------
a---2---2--------------------------------
e-----------------3----------------------

e-2---3---2-0h2p0------------------------
b-----3-----------3---------2-2h3p2------
g-------------------------2---------2---0
d-0-0---0---------------2-------------4--
a-------------------4-0------------------
e----------------------------------------

e---------2---------------3--------------
b-------2---2---------------3------------
g-----4-------4---------0-----0----------
d---4-----------0-----0---------0--------
a-2-----------------2--------------------
e-----------------3----------------------

Verse 1: Riff A x2

Chorus: Fig. 1

e-2----2----2-----0-----------0-0----0----0-----------------0-----
b-3----3----3-----0-----------0-0----0----0-3-3-3--------3--0-----
g-2----2----2-0-0-3-----------0-4----4----4-0-0-0--------0--0-----
d-0----0----0-0-0-4-------------4----4----4-0-0-0--------0--0-----
a-----------------4-------------2----2----2-x-x-x--------x--------
e-----------------2---------2---------------3-3-3--------3--------

e-2----2h3----2-----0-------0---0----0----------------------------
b-3----3------3-0-0-0-------0-0-0----0-3-3-3----------------------
g-2----2------2-0-0-3-------3-0-4----4-0-0-0----------------------
d-0----0------0-0-0-4-------4-0-4----4-0-0-0----------------------
a-------------------4-------4---2----2-x-x-x----------------------
e-------------------2-------2----------3-3-3----------------------

Interlude/Verse 2: Riff A x3.5, then

gtr. 1

e---------2---------------3--------------
b-------2---2---------------3------------
g-----4-------4---------0-----0----------
d---4-----------0-----0---------0--------
a-2-----------------2--------------------
e-----------------3----------------------

gtr. 2

e----------------------------------------
b-------------------------------3--------
g----------------------------------------
d-----------------------0-(3.3)----------
a----------------------------------------
d----------------------------------------

Chorus: Fig. 2 (gtr. 2)

x2
e-----------------------------------------------------------------
b-3-----3-----3--3------------------------------------------------
g-2-----2-----2--2-------------------4-----4----4-4---------------
d-0-----0-----0--0-4---4----4-4-4-4--4-----4----4-4-5--5--5-5-5-5-
a-0-----0-----0--0-4---4----4-4-4-4--2-----2----2-2-5--5--5-5-5-5-
d-0-----0-----0--0-4---4----4-4-4-4-----------------5--5--5-5-5-5-

before bridge:

e-----------------------------------------------------------------
b-----------------------------------------------------------------
g-4---4--4--4--------------------4----4--4--4---------------------
d-4---4--4--4--5---5-5-5-5-5-5-5-4----4--4--4--5----5-5-5-5-5-5-5-
a-2---2--2--2--5---5-5-5-5-5-5-5-2----2--2--2--5----5-5-5-5-5-5-5-
d--------------5---5-5-5-5-5-5-5---------------5----5-5-5-5-5-5-5-

Bridge: ...Sad eyes follow me...

e----------------------2-----2-2---2-2-2-2-2-2-2-2----2----2--2---
b----------------------3-----3-3---3-3-3-3-3-3-3-3----3----3--3---
g----------------------2-----2-2---2-2-2-2-2-2-2-2----2----2--2---
d-5----4----9----7-----0-----0-0---0-0-0-0-0-0-0-0----0----0--0---
a-2----2----5----5-----0-----0-0---0-0-0-0-0-0-0-0----0----0--0---
d-2----2----5----5-----0-----0-0---0-0-0-0-0-0-0-0----0----0--0---

e-----------------------------------------------------------------
b------------------------------------8--8---8----8-8---8--8-8-8-8-
g-2----2---2-2--4----4--4------------7--7---7----7-7---7--7-7-7-7-
d-2----2---2-2--4----4--4-----5------5--5---5----5-5---5--5-5-5-5-
a-0----0---0-0--2----2--2-----5------5--5---5----5-5---5--5-5-5-5-
d-----------------------------5------5--5---5----5-5---5--5-5-5-5-

Outro:

gtr. 1

e-2---5---0h2--------------------------------------------------3--
b-------------3-----2-3-5---5p3p2-3-------3---2h3---------------3-
g---------------0---------------------4-----------4-------0-2-----
d-0-0---0-------------------------------------------4---0---------
a-----------------0-------0---------0---2---2---------------------
e-----------------------------------------------------3-----------


that’s all

right from july guitar one if any of you wanna bitch
lol

trevor jones
timmy91199@yahoo.ca
Tunning: Standard (E A D G B e)
Standard Tuning
from low to high (EADGBE)
Key

h-hammer on
p-pull off
P.M.-paml mute
Harm.-harmonic

Intro

Riff A (clean)

E----2------5------0h2-------------------------------------
B----------------------3---------2--3-3h5-------5p3p2-3----
G-------------------------0--------------------------------
D----0---0-----0-------------------------------------------
A----------------------------0--------------0-------------0
E----------------------------------------------------------

E-------------------------------------------------3--2-----
B------------3-----2h3----------------------3--------------
G-----4-----------------4-------------0--------2-----------
D--------------------------4-------0-----0-----------------
A---------2-----2------------------------------------------
E------------------------------3---------------------------

E---2------3------2--0h2p2---------------------------------
B----------3---------------3-----------2--2h3p2------------
G------------------------------------2----------2-----0----
D---0---0-----0--------------------2---------------4-------
A-----------------------------4--0-------------------------
E----------------------------------------------------------

E------------2--------------------3--------
B----------2---2--------------------3------
G-------4--------4------------0-------0----
D-----4------------0--------0------------0-
A---2---------------------2----------------
D-----------------------3------------------
End Riff A

Verse
Play Riff A 2 times

Chorus

Figure 1

E----2---2---2---------0-------0---0--0--0----------
B----3---3---3---------0-------0---0--0--0---3--3--3
G----2---2---2---0--0--3-------0---2--2--2---0--0--0
D----0---0---0---0--0--4-----------4--4--4---0--0--0
A----------------------4-----------4--4--4---x--x--x
E----------------------2-----2---------------3--3--3

E---2---2h3--2----------0------0--0--0--0---------
B---3---3----3----------0------0--0--0--0--3--3--3
G---2---2----2---0--0---3------0--2--2--2--0--0--0
D---0---0----0---0--0---4---------4--4--4--0--0--0
A-----------------------4---------4--4--4--x--x--x
E-----------------------2----2-------------3--3--3
End Figure 1

Interlude
Play Riff A

Verse 2
Play Riff A 2 times

Chorus
(distortion)
Harm.
E-------------
B-------------
G-------------
D---0---3.3---
A-------------
E-------------

Figure 2

E---------------------------------------------------------
B---3----3--3--3------------------------------------------
G---2----2--2--2-----------------------4--4--4--4---------
D---0----0--0--0---4--4----4--4--4--4--4--4--4--4--5--5--5
A------------------4--4----4--4--4--4--2--2--2--2--5--5--5
E------------------2--2----2--2--2--2--------------3--3--3
End Figure 2

play figure 2
2 times

E---------------------------
B---------------------------
G---4--4--4-----------------
D---4--4--4--5--5--5--5--5-5
A---2--2--2--5--5--5--5--5-5
E------------3--3--3--3--3-3

E---------------------------
B---------------------------
G---4--4--4-----------------
D---4--4--4--5--5--5--5--5-5
A---2--2--2--5--5--5--5--5-5
E------------3--3--3--3--3-3

Bridge

E---------------------2---2--2--2--2---2--2---2--2--2---2
B---------------------3---3--3--3--3---3--3---3--3--3---3
G----------4-----2----2---2--2--2--2---2--2---2--2--2---2
D--5---4---0-----0----0---0--0--0--0---0--0---0--0--0---0
A--2---2---x-----x---------------------------------------
E--0---0---3-----3---------------------------------------

E--------------------------------------------------------
B--------------------------------------------------------
G---2---2--2--2---4---4--4-------------------------------
D---2---2--2--2---2---2--2--5---5--5--5--5--5--5--5--5--5
A---0---0--0--0---2---2--2--5---5--5--5--5--5--5--5--5--5
E---------------------------3---3--3--3--3--3--3--3--3--3

Play that 2 times

the violin part that follows

E----------------------------------------
B----------------------------------------
G-------4---2~~~-------------------------
D----4-----------5--4~~~~----------------
A----------------------4-~~~--4--5--5~~~~~
E----------------------------------------

Play Figure 1 1 time

play figure 2 3 times

E---------------------------
B---------------------------
G---4--4--4-----------------
D---4--4--4--5--5--5--5--5-5
A---2--2--2--5--5--5--5--5-5
E------------3--3--3--3--3-3

E---------------------------
B---------------------------
G---4--4--4-----------------
D---4--4--4--5--5--5--5--5-5
A---2--2--2--5--5--5--5--5-5
E------------3--3--3--3--3-3

Outro

E---2------5------0h2-------------------------------
B---------------------3-------2--3h5------5p3p2-3---
G-----------------------0---------------------------
D---0---0-----0-------------------------------------
A--------------------------0----------0------------0
E---------------------------------------------------

E-----------------------------------------3------------
B------------3-----2h3-----------------------3---------
G-----4-----------------4-----------0--2---------------
D-------------------------4------0---------------------
A--------2------2--------------------------------------
E-----------------------------3------------------------
Tunning: Standard (E A D G B e)
Band: CREED
Album: Weathered
Title: One Last Breath
Transcriber:Fernando Delgado
Tuning: Standard
Feel free to comments in this tab


(Acoustic) intro & verses: 1 -> intro x3->
verse1

|-2---5---0h2------------------------------------------------3-2--|
|------------3----2\3-3h5-5p3/2h3--0-3---2h3-0-----------3--------|
|-------------2-------------------------------0------0-----0------|
|-0-0---0------------------------------------------0--------------|
|---------------0-----0------------2---2--------------------------|
|------------------------------------------------3-----3----------|

|-2---3---2-0h2p0------------------------------2----------------3-------|
|----------------3---------2-2h3p2-----------2---2----------------3-----|
|------------------------2--------2-0------4-------4----------4-----4---|
|-0-0---0----------0---2-----------4-----4-----------4------5---------5-|
|-------------------0------------------2------------------5-------------|
|-------------------------------------------------------3---------------|

1st chorus: (clean) listen to track for exact
number of strums
D B G
|-3-3-3--0-0--0-0-0--3-3--|
|-2-2-2--0-0--0-0-0--3-3--|
|-3-3-3--3-3--4-4-4--4-4--| x2
|-0-0-0--4-4--4-4-4--5-4--|
|-0-0-0--4-4--2-2-2--5-4--|
|--------2-2--0-0-0--3-3--|

repeat for second verse

2nd Chorus: (Distortion)
D5 F#5 B5 G5
|--------------------------| |------------------------------------|
|--------------------------| |------------------------------------|
|-7-7-7-------4-4-4--------| |-4-4-----------4-4------------------|
|-7-7-7--4-4--4-4-4--5-5-5-|x4 |-4-4--5-5-5-5--4-4--5-5-5-5-5-5-5-5-|
|-5-5-5--4-4--2-2-2--5-5-5-| |-2-2--5-5-5-5--2-2--5-5-5-5-5-5-5-5-|
|--------2-2---------3-3-3-| |------3-3-3-3-------3-3-3-3-3-3-3-3-|

Bridge: (Distortion)
E5
|-------------------------------------------|
|-------------------------------------------|
|------------7-7-7-7--7-7-------------------|
|-2-2--\9-/7-7-7-7-7--7-7--7-7-7\9-9--5-5-5-|
|-2-2--\9-/7-5-5-5/4--4\5--7-7-7\9-9--5-5-5-|
|-0-0--\7-/5---------------5-5-5\7-7--3-3-3-|

Play after this then twice and ending by
playing till the G chord
Tunning: Standard (E A D G B e)
Made by: MadMax1786


Verse/Intro *clean*
e-2---5---0h2-------------------------------------------------------3-2--|
B-------------3-----2-3-3h5---5p3p2-3--0--3---2h3p0-------------3--------|
G---------------0------------------------------------0------0-----2------|
D-0-0---0-------------------------------------------------0---0----------|
A-----------------0---------0----------0-2-2--2--------------------------|
E-------------------------------------------------------3----------------|


e-2---3---2h3p2---------------------------------2---------------3--------|
B---------------3---------2-2h3p2-------------2---2---------------3------|
G-----------------------2---------2---0-----4-------4-0-------0-----0----|
D-0-0---0-------------2-------------4-----4-----------------0---------0--|
A-----------------4-0-------------------2-----------------2--------------|
E-------------------------------------------------------3----------------|

Chorus 1 *clean*
e-2------0------2------3-|
B-3------0------2------3-|
G-2------3------4------0-|
D-0------4------4------0-|
A--------4------2------2-|
E--------2-------------3-|

Chorus 2 *distortion*
e------------------|
B------------------|
G-7---------4------|
D-7----4----4----5-|
A-5----4----2----5-|
E------2---------3-|

Bridge Intro *distortion*
e--------|
B--------|
G-4------|
D-4----5-|
A-2----5-|
E------3-|

Bridge *distortion*
e-----------|-----------|
B-----------|-----------|
G---------7-|-----7-----|
D-2---7---7-|-2---7---5-|
A-2---7---5-|-2---5---5-|
E-0---5-----|-0-------3-|

Outro *clean* * Play Slowy Here *
e-2---5---2h0---------------------------------------------------3---|
B-------------3-----2-3-3h5---5p3p2-3-0--3---2h3p0-------------3--3-|
G---------------0----------------------------------0--------0-------|
D-0-0---0-------------------------------------------------0---------|
A-----------------0---------0---------0-2-2--2----------------------|
E-------------------------------------------------------3-----------|

I hope you have fun with this tab. Please send an email to madmax@meng.com
if you have any comments or corrections to share.
Thanks.
Tunning: Standard (E A D G B e)
---------------------------------------------------------------------------
ONE LAST BREATH - Creed
----------------------------------------------------------------------------

Tabbed by:DJ_Inferno2000
Email:DJ_Inferno2000@hotmail.com

Tuning: e B G D A E

Intro/Verse:

e|-2----5----0h2-----------------------------------------------3---|
B|----------------3---2-3-3h5-5p3p2h3p2-----3-2h3----------3-------|
G|------------------------------------------------4------0---------|
D|-0--0----0----------------------------------------4--------0---0-|
A|------------------0---------------------2--0---------------------|
E|-----------------------------------------------------3-----------|

e|-2---3--2p0--------------------------------2------------------3--------|
B|------------3-2----------2h3p2p0h2-------2---2--------------3--3-------|
G|-----------------------2----------------4------4----------0------0-----|
D|-0-0---0-------------2----------------4----------4------0----------0---|
A|-----------------4-0----------------2-----------------2----------------|
E|----------------------------------------------------3------------------|

Clean Chorus:

e|--2--2-2-2-----2--2-2-2----2--2-2-2---3--3-3-3------|
B|--3--3-3-3-----2--2-2-2----3--3-3-3---3--3-3-3------|
G|--2--2-2-2-----3--3-3-3----4--4-4-4---4--4-4-4------| x 2
D|--0--0-0-0-----4--4-4-4----4--4-4-4---5--5-5-5------|
A|---------------4--4-4-4----2--2-2-2---5--5-5-5------|
E|---------------2--2-2-2---------------3--3-3-3------|

Distorted Chorus:

e|-----------------------------------------------------------------|
B|-----------------------------------------------------------------|
G|-7-7-7-7-------4-4-4-4-4------7-7-7-7----------4-4-4-4-----------|
D|-7-7-7-7-4-4-4-4-4-4-4-4-5-5--7-7-7-7-4-4-4-4--4-4-4-4-5-5-5-5---|
A|-5-5-5-5-4-4-4-4-2-2-2-2-5-5--5-5-5-5-4-4-4-4--2-2-2-2-5-5-5-5---|
E|---------2-2-2-2---------3-3----------2-2-2-2----------3-3-3-3---|

Distorted Pre-Bridge:

e|--------------------------------------|
B|--------------------------------------|
G|-4--4-4-4----------4--4-4-4-----------|
D|-4--4-4-4-5--5-5-5-4--4-4-4-5--5-5-5--|
A|-2--2-2-2-5--5-5-5-2--2-2-2-5--5-5-5--|
E|----------3--3-3-3----------3--3-3-3--|


Distorted Bridge:


e|-----------------------------------------------------------|
B|-----------------------------------------------------------|
G|-------------------7-7-7-7---------------------------------|
D|-2-2-2-2-2-5-5-5-5-7-7-7-7-7-7-7-7--9-9-9-9----------------|
A|-2-2-2-2-2-5-5-5-5-5-5-5-5-7-7-7-7--9-9-9-9-5-5-5-5--------|
E|-0-0-0-0-0-3-3-3-3---------5-5-5-5--7-7-7-7-3-3-3-3--------|

Structure:

Verse x 3
Clean Chorus x 2
Verse x 3
Distorted Chorus x 2
Pre-Bridge x1
Bridge x 2
Clean Chorus x 2
Distorted Chorus x 4
Verse ( 1st Part) x 1
****************************************************************************
Song info
One Last Breath
Creed
2001
  • Rock
  • Grunge
  • Nu Metal
Alternative tracks
Similar songs
Burden In My Hand - Soundgarden
All Apologies - Nirvana
Sun Doesnt Rise - Mushroomhead

Hi! Hope you enjoy backing track experience.
If you want to help us in the development of the project, feel free to donate!