00:00 / 00:00
Tabs and lyrics
Tunning: Standard (E A D G B e)
Song: Woodstock
Artist: Crosby Stills Nash and Young

Tabbed by: Beckett W
Email: beckett360@yahoo.com

e|--------------------------------------------------------------------|
B|--------------------------------------------------------------------|
G|----------6----------------------------------------------8----------|
D|----------6-----------8---88-----6b-8/9/10b11b-8---------8----------|
A|-8--6--8----6h8-8-8-6-8-6-88-6-8------------------8-6-6-----8--8----|
E|--------------------------------------------------------------------|

e|------------------------8-------------6------8----------------------|
B|-8---8-8b------8-8b-----8-------------6-8------6--------------------|
G|-8--------6/8-------6/8---6/8-5/7-7h9------------8--6---6-----------|
D|----------------------------------------------------6---6-----------|
A|---6--------------------------------------------------8---8---------|
E|--------------------------------------------------------------------|

[Verse]
E E7
Well I came across a child of God
A7
He was walking along the road
A7
And I asked him tell where are you going
E E7
This he told me


The rest of the song except the chorus uses the same chords like the ones above. E, E7, and A7.


[Chorus]
A7 E
We are stardust, we are golden
A7 A
We are billion year old carbon
G A7 C E
And we've got to get ourselves back to the garden


Chords:
E:022100
E7:020130
A7:X02020
A:X02220
G:320003
C:X32010

Happy 40th Anniversary of Woodstock!

************************************

| b Bend
| / Slide up
| h Hammer-on

************************************
Song info
Woodstock
Crosby, Stills, Nash & Young
2001
  • Pop
  • Rock
  • Classic Rock
  • Folk Rock
Similar songs
Cold As Ice - Foreigner
Love Me Two Times - The Doors
Blowin Free - Wishbone Ash
Shine On - Pink Floyd

Hi! Hope you enjoy backing track experience.
If you want to help us in the development of the project, feel free to donate!