Weather With You - Crowded House
00:00 / 00:00
Tabs and lyrics
Tunning: Standard (E A D G B e)
Intro:
Em7 Asus2
|---0---0-0----0--0-0-0-0-0-|-0-0-0-0-0----0--0-0-0-0---|
|-5---5-5-5----5--5-5-5-5-5-|-5-5-5-5-5----5--5-5-7-8---|
|---------------------------|---------------------------|
|---------------------------|---------------------------|
|---------------------------|---------------------------|
|---------------------------|---------------------------|

|-0-0-0-0-0-0--0----0-0---0---|-0-0-0---0-0--0------------||
|-5-----5-----------5-3-0-3---|-2-----0-0-----------0-----||
|-----------------------------|-------2-----------2---0---||
|-----------------------------|---------------------------||
|-----------------------------|---------------------------||
|-----------------------------|---------------------------||

|-0-0-0-0-0----0--(0)-0-0-0---|-0-(0)-0-0-0-0-0-0-(0)-0-0-0-0----|
|-5-5-5-5-5----5--(5)-5-5-5---|-3s=5--5-5-5-5-5-5-(5)-5-5-7-8----|
|-----------------------------|----------------------------------|
|-----------------------------|----------------------------------|
|-----------------------------|----------------------------------|
|-----------------------------|----------------------------------|

|-0-0-0-0----0--0-----0-0-----|-----0-0---0-0--0--0---0-0-0---||
|-7-5-3-0-------------0-0-----|-----5-5---0-0--0--0---0-0-0---||
|-----------------2s4-----4---|-4s6-----6-6-6--6--6-6-6-6-6---||
|-----------------------------|-------------------------------||
|-----------------------------|-------------------------------||
|-----------------------------|-------------------------------||

Em7 Asus4
Walking 'round the room singing Stormy Weather
Em7 Asus4
At 57 Mount Pleasant Street
Em7 Asus4
Now it's the same room but everything's different
Em7 Asus4
You can fight the sleep but not the dream

Dm C Dm C
Things ain't cookin'in my kitchen
Dm C F
Strange affliction wash over me
Dm C Dm C
Julius Caesar and the Roman Empire
Dm C F G
Couldn't conquer the blue sky

Em7 Asus4 Em7 Asus4 with intro riff

A7sus4 D/F#
Everywhere you go, you always take the weather with you
A7sus4 D/F#
Everywhere you go, you always take the weather
A7sus4 G
Everywhere you go, you always take the weather with you
D/F# G
Everywhere you go, you always take the weather
A Em7
The weather with you

Em7 Asus4 Em7 Asus4
Em7 Asus4
There's a small boat made of china
Em7 Asus4
Going nowhere on the mantlepiece
Em7 Asus4
Do I lie like a loungeroom lizard
Em7 Asus4 A7sus4
Or do I sing like a bird released?

A7sus4 D
Everywhere you go, you always take the weather with you
A7sus4 D
Everywhere you go, you always take the weather
A7sus4 G
Everywhere you go, you always take the weather with you
F#m G
Everywhere you go, you always take the weather
A Em7
The weather with you

Guitar Solo over sequence Asus4 Em7

|-0-0-0-0-0-0-0-(0)-0-0-0-0-0-|-0-(0)-0-0-0-0-0-0-(0)-0-0-0--0---|
|-5-5-5-5-5-5-5-(5)-5-5-5-5-5-|-3s=5--5-5-5-5-5-5-(5)-5-5-8-10---|
|-----------------------------|----------------------------------|
|-----------------------------|----------------------------------|
|-----------------------------|----------------------------------|
|-----------------------------|----------------------------------|

|-0-0-0-0-0----0-----0--0-----|--0----0-0----0--0----0-0-0---|
|-5-5-5-5-5S==12----12-12-----|-10------8-------5s=8-5-3-5---|
|-----------------------------|------------------------------|
|-----------------------------|------------------------------|
|-----------------------------|------------------------------|
|-----------------------------|------------------------------|

|-(0)-0-0-0-0-(0)-0-0-0-0---|-0-0-0-0---(0)---0-0-0---|
|-(5)-5-5-5-5-(5)-5-5-7-8---|-7-5-3-0---(0)---0-3-5---|
|---------------------------|-------------------------|
|---------------------------|-------------------------|
|---------------------------|-------------------------|
|---------------------------|-------------------------|

|---0-------------0-------------|-----0-------0-----------0-------||
|---0-------------0-------------|-----0-------0-----------0-------||
|-2---2-0-2-0--2----2-0-2-0-2---|-2s4---4-(4)---4----4s=7---7-----||
|-------------------------------|---------------------------------||
|-------------------------------|---------------------------------||
|-------------------------------|---------------------------------||

A7sus4 D/F#
Everywhere you go, you always take the weather with you
A7sus4 D/F#
Everywhere you go, you always take the weather
A7sus4 G
Everywhere you go, you always take the weather with you
D/F# G
Everywhere you go, you always take the weather
A D
Take the weather with you
Song info
Weather With You
Crowded House
2001
  • Pop
  • Rock
  • Pop Rock
Alternative tracks
Similar songs
Misery Business - Paramore
The Other Side Of Life - The Moody Blues
Alone Again - Gilbert O'Sullivan
Nobodys Wife - Anouk
The Fly - U2

Hi! Hope you enjoy backing track experience.
If you want to help us in the development of the project, feel free to donate!