Digital Love - Daft Punk
00:00 / 00:00
Tabs and lyrics
Tunning: Standard (E A D G B e)
-------------------------------------------------------------------------------
DIGITAL LOVE - Daft Punk
-------------------------------------------------------------------------------
Tabbed by: codo24769

[Intro]

e|-----------------------|---------------------------|
B|-----------------------|---------------------------|
G|-7--7----6----11----9--|---------------------------| x4 (continue for verse)
D|-7--7----7----11----9--|------7----9h11-7---7-9-7--|
A|-5--5----4----9-----7--|--7h9-------------9--------|
E|-----------------------|---------------------------|

This is thrown in later a couple times and during the solo
D C# F#m C#m
e|------------------------|-------------------------|
B|-7--7--------6--6-------|-10--10-------5---5---5--|
G|-7--7--------6--6-------|-11--11-------6---6---6--| x4
D|-7--7--------6--6-------|-11--11-------6---6---6--|
A|-5--5--------4--4-------|-9---9--------4---4---4--|
E|------------------------|-------------------------|

[Pre-solo]
e|------------------------------------------------------------------------|
B|---------------------------------------------16b------------------------|
G|------------------------------------14----14----------------------------|
D|---------------14b------------14-16----16-------------------------------|
A|-------12---12----------------------------------------------------------|
E|-12-14---14-------------------------------------------------------------|
why don't you play the game?

[Solo]
e|-------------------------------17-16-17-14--17--17--17--17----------------------------|
B|------------------------/18-16------------17--15--14----------------------------------|
G|------------/16-14~--14-------------------------------16--14~-------------------------|
D|----/16-14~---------------------------------------------------------------------------|
A|-12~----------------------------------------------------------------------------------|
E|--------------------------------------------------------------------------------------|

This is played extremely quickly, tremelo is the easiest way to do this and you may end
hitting extra notes.
e|---------------------------------------16-18-20/22b~--------------------|
B|---------------------15-17-15-17-19-20----------------------------------|
G|-14-16-18-16-18-19-21---------------------------------------------------|
D|------------------------------------------------------------------------|
A|------------------------------------------------------------------------|
E|------------------------------------------------------------------------|

e|------------------------------------------------------------------------|
B|------------------------------------------------------------------------|
G|------------------------------------------------------------------------|
D|-/21\7-7h9h11-7h9h11-7h9-/14br~-12--------------------------------------|
A|------------------------------------------------------------------------|
E|------------------------------------------------------------------------|

e|---------------------------------------------7b~7b7b7b7b7b~7b~-5p2-5p2-/19-17~--|
B|-10b~--10b10b-10b-10b10b-5h7h10-5h7h10-5h7h10-----------------------------------|
G|--------------------------------------------------------------------------------|
D|--------------------------------------------------------------------------------|
A|--------------------------------------------------------------------------------|
E|--------------------------------------------------------------------------------|

There is some heavy distortion during this riff
e|--------------------------------------------------------------------------------------------|
B|--------------------------------------------------------------------------------------------|
G|-----------------------------------------------------3h4h6-6p4h6h7-6h7h9--------------------|
D|------------------------------------------------4h6h7---------------------------------------|
A|-/9-0-4-7-9-7------------------------------5h7h9--------------------------------------------|
E|--------------0-2-7-2-5p2-2h4h5-4h5h7-5h7h9-------------------------------------------------|

e|----------------------------------------------------------------|
B|--------10h12h14/15b~-------------------------------------------|
G|--8h9h11--------------------------------------------------------|
D|----------------------------------------------------------------|
A|----------------------------------------------------------------|
E|----------------------------------------------------------------|

[Solo cont.]
(tapping)

e|--------------------------7b~------------------------------------------------------------------|
B|--t17p5-t10p5-t12p5-x?------------------------------------------4-6-7-6-4----------------------|
G|---------------------------------9-9-9b~--7-7-6-9b-9-7-6--------------------7~~~---------------|
D|------------------------------7-9-7-------------------------9-7--------------------------------|
A|-----------------------------------------------------------------------------------------------|
E|-----------------------------------------------------------------------------------------------|

That's pretty much it. Listen to the song a couple of times and it should fall into place.
Pretty sure it's originally a synth solo so mess around with the sound and distortion to get
it sounding right. Also play around with a whammy bar on some of the vibrato parts.


************************************

| h Hammer-on
| p Pull-off
| t Tapping
| b Bend
| / Slide up
| \ Slide down
| ~ Vibrato

************************************
Tunning: Standard (E A D G B e)
-------------------------------------------------------------------------------
Digital Love - Daft Punk
-------------------------------------------------------------------------------

Taken from another site,all credit goes to the original tabber


Bm7 A/C# Dmaj7 Esus4

E-|------------------2------0---|(0)-----------------------------|
B-|3---3------2------2------0---|(0)-------------0h2-2h3---------|
G-|2---2------2------2------2---|(2)-----2---------------2h4-2---|
D-|0---0------2------0------2---|(2)-2h4-------------------------|
A-|2---2------4-----------------|--------------------------------|
E-|-----------------------------|--------------------------------|
| |
| |
E-|--------------------------------|----------------4h5-5-5-4p2-0---|
B-|--------------------------------|--------3-----------------------|
G-|--------------------------------|----2h4-------------------------|
D-|--------------------------------|--------------------------------|
A-|--------------------------------|--------------------------------|
E-|--------------------------------|--------------------------------|


D C# F#m C#m

E-|--------------------------------|5---5---x-----------------------|
B-|7---7---x-------6---6---x-------|2---2---x-------5---x-5---x-5-x-|
G-|7---7---x-------6---6---x-------|2---2---x-------6---x-6---x-6-x-|
D-|7---7---x-------6---6---x-------|4---4---x-------6---x-6---x-6-x-|
A-|5---5---x-------4---4---x-------|----------------4---x-4---x-4-x-|
E-|--------------------------------|--------------------------------|
Song info
Digital Love
Daft Punk
2001
  • Electronic
  • House
Alternative tracks
Similar songs
Get On The Floor - Michael Jackson
Monster - The Automatic
If You Want To - Weezer
A Song For you - Ray Charles

Hi! Hope you enjoy backing track experience.
If you want to help us in the development of the project, feel free to donate!