Moonage Daydream - David Bowie
00:00 / 00:00
Tabs and lyrics
Tunning: Standard (E A D G B e)
[Verse]
D (5th fret) (no notes)
I'm an alligator,
F# (9th fret) (no notes) B
I'm a mama-papa comin' for you
A E G
I'm a space invader, I'll be a rock 'n' rollin' bitch for you
D F#
Keep your mouth shut, you're sqauwkin' like a pink monkey bird
B A E (1st fret)
and I'm busting up my brains for the words


[Chorus]
G D E (1st fret)
Keep your 'lectric eye on me babe
G D E (1st fret)
Put your ray gun to my head
G D E (1st fret)
Press your space face close to mine, love
D (5th fret) E (7th fret)
Freak out in a moonage daydream oh! yeah!


[Verse]
(chords same as first verse)
Don't fake it baby, lay the real thing on me
The church of man, love, is such a holy place to be
Make me baby, make me know you really care
Make me jump into the air


[Chorus]
G D E (1st fret)
Keep your 'lectric eye on me babe
G D E (1st fret)
Put your ray gun to my head
G D E (1st fret)
Press your space face close to mine, love
D (5th fret) E (7th fret)
Freak out in a moonage daydream oh! yeah!


[BREAK]
(guitar doubles sax line)

e|--------------------------------------------------|
B|--------------------------------------------------|
G|--7-6-7-6-7-6-7-6-7-4-----6-4-6-4-6-4-6-4-6-------|
D|--------------------------------------------7-----|
A|--------------------------------------------------|
E|--------------------------------------------------|

e|--------------------------------------------------|
B|--------------------------------------------------|
G|--4---4---4---4---4-------------------------------|
D|----7---7---7---7---5-----4-4-4-4-4-4-4-4---------|
A|--------------------------------------------------|
E|--------------------------------------------------|

e|--------------------------------------------------|
B|--------------------------------------------------|
G|--6-6-6-6-6-6-6-6---------------------------------|
D|--------------------------------------------------|
A|--------------------------------------------------|
E|--------------------------------------------------|

e|--------------------------------------------------|
B|--------------------------------------------------|
G|--7-6-7-6-7-6-7-6-7-4-----6-4-6-4-6-4-6-4-6-------|
D|--------------------------------------------7-----|
A|--------------------------------------------------|
E|--------------------------------------------------|

e|--------------------------------------------------|
B|--------------------------------------------------|
G|--4---4---4---4---4-------------------------------|
D|----7---7---7---7---5-----4-4-4-4-4-4-4-4---------|
A|--------------------------------------------------|
E|--------------------------------------------------|

e|--------------------------------------------------|
B|--------------------------------------------------|
G|--6-6-6-6-6-6-6-6-7-------------------------------|
D|--------------------------------------------------|
A|--------------------------------------------------|
E|--------------------------------------------------|
(hold the last D over the beginning of the chorus)


[Chorus]
G D E (1st fret)
Keep your 'lectric eye on me babe
G D E (1st fret)
Put your ray gun to my head
G D E (1st fret)
Press your space face close to mine, love
D (5th fret) E (7th fret)
Freak out in a moonage daydream oh! yeah!

(repeat chorus 2x)


[Outro]
D A G F#
Freak out! Far out!

(repeat with lots of bluesly licks, bends and feedback
built around the D major scale)
Tunning: Standard (E A D G B e)
MOONAGE DAYDREAM
As recorded by David Bowie
(From the 1972 Album THE RISE AND FALL OF ZIGGY STARDUST AND THE SPIDERS FROM MARS)

Words and Music by David Bowie

Transcribed by Slowhand


Gtr I (E A D G B E) - 'David Bowie - 12-string Acoustic Guitar'
Gtr II (E A D G B E) - 'Mick Ronson - Electric Guitar'
Gtr III (E A D G B E) - 'Mick Ronson - Electric Guitar'


1st Verse
H=72
D F#
4/4
Gtr I (Ac. 12-string Gtr.)
Q. E Q Q W Q. E Q Q W
|-5----5-5-----|----------|--2----2--2-----|------|
|-7----7-7-----|----------|--2----2--2-----|------|
|-7----7-7-----|----------|--3----3--3-----|------|
|-7----7-7-----|----------|--4----4--4-----|------|
|-5----5-5-----|----------|--4----4--4-----|------|
|--------------|----------|--2----2--2-----|------|
|
| Gtr II (El. Gtr.)
| H Q Q W H Q Q W
|--------------|----------|----------------|------|
|--------------|----------|----------------|------|
|-7------7-----|----------|-11------11-----|------|
|-7------7-----|----------|-11------11-----|------|
|-5------5-----|----------|--9-------9-----|------|
|--------------|----------|----------------|------|


Bm Bm7 E
Gtr I
Q E E Q E E Q E E Q E E Q E E Q E E Q E E Q E E
|-2--2-2-2--2-x-|-2--2-2-2--2-2-|-7----7-7--7-7-|-7----7-7--7-x--|
|-3--3-3-3--3-x-|-3--3-3-3--3-3-|-9----9-9--9-9-|-9----9-9--9-x--|
|-4--4-4-4--4-x-|-2--2-2-2--2-2-|-9----9-9--9-9-|-9----9-9--9-x--|
|-4--4-4-4--4-x-|-4--4-4-4--4-4-|-9----9-9--9-9-|-9----9-9--9-x--|
|-2--2-2-2--2-x-|-2--2-2-2--2-2-|-7----7-7--7-7-|-7----7-7--7-x--|
|---------------|---------------|---------------|----------------|


G D
Q E E Q E E Q E E Q E E Q E E Q E E Q E E Q E E
|-3----3-3----3-|-3----3-3--3-x-|-5----5-5----5-|-5----5-5--x-x--|
|-3----3-3----3-|-3----3-3--3-x-|-7----7-7----7-|-7----7-7--x-x--|
|-4----4-4----4-|-4----4-4--4-x-|-7----7-7----7-|-7----7-7--x-x--|
|-5----5-5----5-|-5----5-5--5-x-|-7----7-7----7-|-7----7-7--x-x--|
|-5----5-5----5-|-5----5-5--5-x-|-5----5-5----5-|-5----5-5--x-x--|
|-3----3-3----3-|-3----3-3--3-x-|---------------|----------------|


F# Bm Bm7
Q E E Q. E Q E E Q Q Q E E Q E E Q E E Q E E
|-2----2-2----2-|-2--2-2-2-----|-7----7-7--7-7-|-7----7-7--7-x--|
|-2----2-2----2-|-2--2-2-2-----|-7----7-7--7-7-|-7----7-7--7-x--|
|-3----3-3----3-|-3--3-3-3-----|-7----7-7--7-7-|-7----7-7--7-x--|
|-4----4-4----4-|-4--4-4-4-----|-9----9-9--9-9-|-7----7-7--7-x--|
|-4----4-4----4-|-4--4-4-4-----|-9----9-9--9-9-|-9----9-9--9-x--|
|-2----2-2----2-|-2--2-2-2-----|-7----7-7--7-7-|-7----7-7--7-x--|


Chorus
E Em7 Bm7
Q E E Q E E E E E E Q E E Q E E Q E E Q E E Q E E
|-7----7-7----7-|-7-7-7-7-7--x-x-||-7--7-7-7--7-x-|-7--7-7-7--7-x--|
|-9----9-9----9-|-9-9-9-9-9--x-x-||-8--8-8-8--8-x-|-7--7-7-7--7-x--|
|-9----9-9----9-|-9-9-9-9-9--x-x-||-7--7-7-7--7-x-|-7--7-7-7--7-x--|
|-9----9-9----9-|-9-9-9-9-9--x-x-||-9--9-9-9--9-x-|-7--7-7-7--7-x--|
|-7----7-7----7-|-7-7-7-7-7--x-x-||-7--7-7-7--7-x-|-9--9-9-9--9-x--|
|---------------|----------------||---------------|-7--7-7-7--7-x--|


E Em7 Bm7
Q E E Q E E Q E E Q E E Q E E Q E E Q E E Q E E
|-7--7-7-7--7-7-|-7--7-7-7--7-7-|-7--7-7-7--7-x-|-7--7-7-7--7-x--|
|-9--9-9-9--9-9-|-9--9-9-9--9-9-|-8--8-8-8--8-x-|-7--7-7-7--7-x--|
|-9--9-9-9--9-9-|-9--9-9-9--9-9-|-7--7-7-7--7-x-|-7--7-7-7--7-x--|
|-9--9-9-9--9-9-|-9--9-9-9--9-9-|-9--9-9-9--9-x-|-7--7-7-7--7-x--|
|-7--7-7-7--7-7-|-7--7-7-7--7-7-|-7--7-7-7--7-x-|-9--9-9-9--9-x--|
|---------------|---------------|---------------|-7--7-7-7--7-x--|


E Em7 Bm7
Q E E Q E E Q E E Q E E Q E E Q E E Q E E Q E E
|-7--7-7-7--7-7-|-7--7-7-7--7-7-|-7--7-7-7--7-x-|-7--7-7-7--7-x--|
|-9--9-9-9--9-9-|-9--9-9-9--9-9-|-8--8-8-8--8-x-|-7--7-7-7--7-x--|
|-9--9-9-9--9-9-|-9--9-9-9--9-9-|-7--7-7-7--7-x-|-7--7-7-7--7-x--|
|-9--9-9-9--9-9-|-9--9-9-9--9-9-|-9--9-9-9--9-x-|-7--7-7-7--7-x--|
|-7--7-7-7--7-7-|-7--7-7-7--7-7-|-7--7-7-7--7-x-|-9--9-9-9--9-x--|
|---------------|---------------|---------------|-7--7-7-7--7-x--|


E D
Q E E Q E E Q E E Q E E Q Q H W
|-7--7-7-7--7-7-|-7--7-7-7--7-7-|-5-----------------|-----------------|
|-9--9-9-9--9-9-|-9--9-9-9--9-9-|-7-----------------|-----------------|
|-9--9-9-9--9-9-|-9--9-9-9--9-9-|-7-----------------|-----------------|
|-9--9-9-9--9-9-|-9--9-9-9--9-9-|-7-----------------|-----------------|
|-7--7-7-7--7-7-|-7--7-7-7--7-7-|-5-----------------|-----------------|
|---------------|---------------|-------------------|-----------------|
|
| Gtr II
| PM----------------------|
| W W Q +Q a E E E E E E E E E E E E
|---------------|---------------|-------------------|-----------------|
|---------------|---------------|-------------------|-----------------|
|---------------|---------------|-7--(7)s=4-7-7-7-7-|-7-7-7-7-7-7-7-7-|
|---------------|---------------|-7--(7)s=4-7-7-7-7-|-7-7-7-7-7-7-7-7-|
|---------------|---------------|-5--(5)s=2-5-5-5-5-|-5-5-5-5-5-5-5-5-|
|---------------|---------------|-------------------|-----------------|


2nd Verse
E D
W W Q. E Q Q W
|-7--------|----------||-5----5-5-----|------|
|-9--------|----------||-7----7-7-----|------|
|-9--------|----------||-7----7-7-----|------|
|-9--------|----------||-7----7-7-----|------|
|-7--------|----------||-5----5-5-----|------|
|----------|----------||--------------|------|
|
| W W H H W
|----------|----------||--------------|------|
|----------|----------||--------------|------|
|-9--------|----------||-7------7-----|------|
|-9--------|----------||-7------7-----|------|
|-7--------|----------||-5------5-----|------|
|----------|----------||--------------|------|


F# Bm Bm7
Q. E Q Q W Q E E Q E E Q E E Q E E
|--2----2--2-----|----------|-2--2-2-2----2--2-|-2--2-2-2----2--x---|
|--2----2--2-----|----------|-3--3-3-3----3--3-|-3--3-3-3----3--x---|
|--3----3--3-----|----------|-4--4-4-4----4--4-|-2--2-2-2----2--x---|
|--4----4--4-----|----------|-4--4-4-4----4--4-|-4--4-4-4----4--x---|
|--4----4--4-----|----------|-2--2-2-2----2--2-|-2--2-2-2----2--x---|
|--2----2--2-----|----------|------------------|--------------------|
|
| PM--| PM-|
| H Q Q W Q E E E E +Q Q Q E E +Q a
|----------------|----------|------------------|--------------------|
|----------------|----------|----------3-(3)---|----------3-(3)s==0-|
|-11------11-----|----------|------------------|--------------------|
|-11------11-----|----------|----4-4-4---------|--------2-----------|
|--9-------9-----|----------|-2----------------|-0------------------|
|----------------|----------|------------------|----0---------------|


E G
Q E E Q E E Q E E Q E E Q E E Q E E Q E E Q E E
|-7----7-7--7-7-|-7----7-7--7-x-|-3-----3-3----3-|-3-----3-3---3-x--|
|-9----9-9--9-9-|-9----9-9--9-x-|-3-----3-3----3-|-3-----3-3---3-x--|
|-9----9-9--9-9-|-9----9-9--9-x-|-4-----4-4----4-|-4-----4-4---4-x--|
|-9----9-9--9-9-|-9----9-9--9-x-|-5-----5-5----5-|-5-----5-5---5-x--|
|-7----7-7--7-7-|-7----7-7--7-x-|-5-----5-5----5-|-5-----5-5---5-x--|
|---------------|---------------|-3-----3-3----3-|-3-----3-3---3-x--|
|
| PM----| PM------------|
| Q E E H Q E E H E E E E H E E E E E E E E
|---------------|---------------|----------------|------------------|
|---------------|---------------|----------------|------------------|
|----x-x-9------|-x--x-x-9------|----------------|------------------|
|----x-x-9------|-x--x-x-9------|-5-5-5-5-5------|-5-5-5-5-5-5-5-5--|
|----x-x-7------|-x--x-x-7------|----------------|------------------|
|-0-------------|---------------|----------------|------------------|


D F#
Q E E Q E E Q E E Q E E Q E E Q. E Q E E Q Q
|-5-----5-5----5-|-5----5-5---x-x-|-2-----2-2----2-|-2--2-2-2---------|
|-7-----7-7----7-|-7----7-7---x-x-|-2-----2-2----2-|-2--2-2-2---------|
|-7-----7-7----7-|-7----7-7---x-x-|-3-----3-3----3-|-3--3-3-3---------|
|-7-----7-7----7-|-7----7-7---x-x-|-4-----4-4----4-|-4--4-4-4---------|
|-5-----5-5----5-|-5----5-5---x-x-|-4-----4-4----4-|-4--4-4-4---------|
|----------------|----------------|-2-----2-2----2-|-2--2-2-2---------|
|
| PM----| PM PM----| PM--|
| E E E E H H E E Q E E E E H Q E E E E +Q
|----------------|----------------|----------------|------------------|
|----------------|----------------|----------------|------------------|
|----------------|------------7---|----------------|------------------|
|-7-7-7-7-7------|----------7-7---|-4-4-4-4-4------|-4--4-4---4-(4)---|
|---------5------|----------------|-4-4-4-4-4------|-4--4-4-4---------|
|----------------|----------------|-2-2-2-2-2------|-2--2-2-----------|


Bm E
Q E E Q E E Q E E Q E E Q E E Q E E E E E E Q E E
|-2----2-2--2-2-|-2----2-2--2-x-|-7----7-7----7-|--7--7-7-7-7--x----x-||
|-3----3-3--3-3-|-3----3-3--3-x-|-9----9-9----9-|--9--9-9-9-9--x----x-||
|-4----4-4--4-4-|-2----2-2--2-x-|-9----9-9----9-|--9--9-9-9-9--x----x-||
|-4----4-4--4-4-|-4----4-4--4-x-|-9----9-9----9-|--9--9-9-9-9--x----x-||
|-2----2-2--2-2-|-2----2-2--2-x-|-7----7-7----7-|--7--7-7-7-7--x----x-||
|---------------|---------------|---------------|---------------------||
|
| W W W +H. S E.
|---------------|---------------|---------------|---------------------||
|---------------|---------------|---------------|---------------------||
|---------------|---------------|---------------|---------------------||
|---------------|---------------|---------------|---------------------||
|-2-------------|-0-------------|---------------|---------------------||
|---------------|---------------|-0-------------|-(0)------------0----||


Chorus
Em7 Bm7 E
Q E E Q E E Q E E Q E E Q E E Q E E Q E E Q E E
|-7--7-7-7--7-x-|-7--7-7-7--7-x-|-7---7-7-7--7-7-|--7----7-7-7----7-7-|
|-8--8-8-8--8-x-|-7--7-7-7--7-x-|-9---9-9-9--9-9-|--9----9-9-9----9-9-|
|-7--7-7-7--7-x-|-7--7-7-7--7-x-|-9---9-9-9--9-9-|--9----9-9-9----9-9-|
|-9--9-9-9--9-x-|-7--7-7-7--7-x-|-9---9-9-9--9-9-|--9----9-9-9----9-9-|
|-7--7-7-7--7-x-|-9--9-9-9--9-x-|-7---7-7-7--7-7-|--7----7-7-7----7-7-|
|---------------|-7--7-7-7--7-x-|----------------|--------------------|
|
| PM--|
| W Q Q H H. E E +E E E E Q a Q
|---------------|---------------|----------------|--------------------|
|---------------|--------3------|----------------|--------------------|
|---------------|----4----------|--------------9-|-(9)-9-9-9-9s=6-----|
|---------------|---------------|--------------9-|-(9)-9-9-9-9s=6-----|
|---------------|-2-------------|--------------7-|-(7)-7-7-7-7s=4-----|
|-3-------------|---------------|-0--------------|--------------------|
W


Em7 Bm7 E
Q E E Q E E Q E E Q E E Q E E Q E E Q E E Q E E
|-7--7-7-7--7-x-|-7---7-7--7---7-x-|-7---7-7-7--7-7-|--7----7-7-7-----7-7-|
|-8--8-8-8--8-x-|-7---7-7--7---7-x-|-9---9-9-9--9-9-|--9----9-9-9-----9-9-|
|-7--7-7-7--7-x-|-7---7-7--7---7-x-|-9---9-9-9--9-9-|--9----9-9-9-----9-9-|
|-9--9-9-9--9-x-|-7---7-7--7---7-x-|-9---9-9-9--9-9-|--9----9-9-9-----9-9-|
|-7--7-7-7--7-x-|-9---9-9--9---9-x-|-7---7-7-7--7-7-|--7----7-7-7-----7-7-|
|---------------|-7---7-7--7---7-x-|----------------|---------------------|
|
| PM----|
| W Q. E +H H. E E +E E E E E E a Q
|---------------|------------------|----------------|---------------------|
|---------------|------------------|----------------|---------------------|
|---------------|-------7-(7)------|-9------------9-|-(9)-9-9-9-9-9s4-----|
|-5-------------|------------------|-9------------9-|-(9)-9-9-9-9-9s4-----|
|-5-------------|------------------|-7------------7-|-(7)-7-7-7-7-7s2-----|
|-3-------------|-7----------------|----------------|---------------------|


Em7 Bm7 E
Q E E Q E E Q E E Q E E Q E E Q E E Q E E Q E E
|-7--7-7-7--7-x-|-7----7-7--7---7-x-|-7---7-7-7---7--7-|--7---7-7-7---7-7--|
|-8--8-8-8--8-x-|-7----7-7--7---7-x-|-9---9-9-9---9--9-|--9---9-9-9---9-9--|
|-7--7-7-7--7-x-|-7----7-7--7---7-x-|-9---9-9-9---9--9-|--9---9-9-9---9-9--|
|-9--9-9-9--9-x-|-7----7-7--7---7-x-|-9---9-9-9---9--9-|--9---9-9-9---9-9--|
|-7--7-7-7--7-x-|-9----9-9--9---9-x-|-7---7-7-7---7--7-|--7---7-7-7---7-7--|
|---------------|-7----7-7--7---7-x-|------------------|-------------------|
|
|-------------------------------PM| PM--| PM
| W E Q. +Q E E H. +E E +Q E E E Q E
|---------------|-------------------|------------------|-------------------|
|---------------|-------------------|------------------|-------------------|
|---------------|---7------(7)------|-9----------(9)-9-|-(9)--9-9-9-9---9--|
|-5-------------|-------------------|-9----------(9)-9-|-(9)--9-9-9-9---9--|
|-5-------------|-9--------(9)--9-9-|-7----------(7)-7-|-(7)--7-7-7-7---7--|
|-3-------------|-7--------(7)--7-7-|------------------|-------------------|
H +Q E E


D E
Q Q H W W W
|-5-----------------|-----------------|-7--------|-------------------||
|-7-----------------|-----------------|-9--------|-------------------||
|-7-----------------|-----------------|-9--------|-------------------||
|-7-----------------|-----------------|-9--------|-------------------||
|-5-----------------|-----------------|-7--------|-------------------||
|-------------------|-----------------|----------|-------------------||
|
| PM----------------------|
| Q +Q a E E E E E E E E E E E E W E E E E E E a Q
|-------------------|-----------------|----------|-------------------||
|-------------------|-----------------|----------|-------------------||
|-7--(7)s=4-7-7-7-7-|-7-7-7-7-7-7-7-7-|-9--------|-x-x-x-x-x-7s4-----||
|-7--(7)s=4-7-7-7-7-|-7-7-7-7-7-7-7-7-|-9--------|-x-x-x-x-x-7s4-----||
|-5--(5)s=2-5-5-5-5-|-5-5-5-5-5-5-5-5-|-7--------|-x-x-x-x-x-5s2-----||
|-------------------|-----------------|----------|-------------------||


Interlude
Bm7 A
Gtrs I, II
PM
E E E E Q Q E E E E Q Q E E E E Q Q E E E E E E E E
|---------------|----------------|---------------|------------------|
|-7-7-7-7-7--x--|-7-7-7-7-7\--5--|-5-5-5-5-5--x--|-5-5-5-5-5-x-x-x--|
|-7-7-7-7-7--x--|-7-7-7-7-7\--6--|-6-6-6-6-6--x--|-6-6-6-6-6-x-x-x--|
|-7-7-7-7-7--x--|-7-7-7-7-7\--7--|-7-7-7-7-7--x--|-7-7-7-7-7-x-x-x--|
|-9-9-9-9-9--x--|-9-9-9-9-9\--7--|-7-7-7-7-7--x--|-7-7-7-7-7-x-x-x--|
|-7-7-7-7-7--x--|-7-7-7-7-7\--5--|-5-5-5-5-5--x--|-5-5-5-5-5-x-x-x--|


G F#5
E E E E Q Q E E E E Q. +E a E E E E E E E E E E E E E E E E
|---------------|--------------------|-----------------|------------------|
|-3-3-3-3-3--x--|--------------------|-----------------|------------------|
|-4-4-4-4-4--x--|--------------------|-----------------|------------------|
|-5-5-5-5-5--x--|--------------------|-4-4-4-4-4-4-4-4-|-4-4-4-4-4-4-4-4/-|
|-5-5-5-5-5--x--|--------------------|-4-4-4-4-4-4-4-4-|-4-4-4-4-4-4-4-4/-|
|-3-3-3-3-3--x--|-3-3-3-3-3----(3)s7-|-2-2-2-2-2-2-2-2-|-2-2-2-2-2-2-2-2/-|


Bm7 A
E E E E Q Q E E E E E E E E E E E E Q Q E E E E E E E E
|---------------|-----------------|---------------|------------------|
|-7-7-7-7-7--x--|-7-7-7-7-7-x-x-x-|-5-5-5-5-5--x--|-5-5-5-5-5-x-x-x--|
|-7-7-7-7-7--x--|-7-7-7-7-7-x-x-x-|-6-6-6-6-6--x--|-6-6-6-6-6-x-x-x--|
|-7-7-7-7-7--x--|-7-7-7-7-7-x-x-x-|-7-7-7-7-7--x--|-7-7-7-7-7-x-x-x--|
|-9-9-9-9-9--x--|-9-9-9-9-9-x-x-x-|-7-7-7-7-7--x--|-7-7-7-7-7-x-x-x--|
|-7-7-7-7-7--x--|-7-7-7-7-7-x-x-x-|-5-5-5-5-5--x--|-5-5-5-5-5-x-x-x--|


G5 F#5
E E E E Q E E E E E E Q E E E E E E E E E E E E E E E E E E
|----------------|----------------|-----------------|-------------------||
|----------------|----------------|-----------------|-------------------||
|----------------|----------------|-----------------|-------------------||
|-5-5-5-5-5--x-x-|-5-5-5-5-5--x-x-|-4-4-4-4-4-4-4-4-|-4-4-4-4-4-4-4-4/--||
|-5-5-5-5-5--x-x-|-5-5-5-5-5--x-x-|-4-4-4-4-4-4-4-4-|-4-4-4-4-4-4-4-4/--||
|-3-3-3-3-3--x-x-|-3-3-3-3-3--x-x-|-2-2-2-2-2-2-2-2-|-2-2-2-2-2-2-2-2/--||


Chorus
Em7 Bm7 E
Gtr I
Q E E Q E E Q E E Q E E Q E E Q E E Q E E Q E E
||--7--7-7-7--7-x-|-7--7-7-7--7-x-|-7---7-7-7--7-7-|--7----7-7-7----7-7--|
||o-8--8-8-8--8-x-|-7--7-7-7--7-x-|-9---9-9-9--9-9-|--9----9-9-9----9-9--|
||--7--7-7-7--7-x-|-7--7-7-7--7-x-|-9---9-9-9--9-9-|--9----9-9-9----9-9--|
||--9--9-9-9--9-x-|-7--7-7-7--7-x-|-9---9-9-9--9-9-|--9----9-9-9----9-9--|
||o-7--7-7-7--7-x-|-9--9-9-9--9-x-|-7---7-7-7--7-7-|--7----7-7-7----7-7--|
||----------------|-7--7-7-7--7-x-|----------------|---------------------|
|
| Gtr II
| PM--|
| W Q Q H H. E E +E E E E Q a Q
||----------------|---------------|----------------|---------------------|
||o---------------|--------3------|----------------|---------------------|
||----------------|----4----------|--------------9-|-(9)-9-9-9-9s=6------|
||----------------|---------------|--------------9-|-(9)-9-9-9-9s=6------|
||o---------------|-2-------------|--------------7-|-(7)-7-7-7-7s=4------|
||--3-------------|---------------|-0--------------|---------------------|
W


Em7 Bm7 E
Q E E Q E E Q E E Q E E Q E E Q E E Q E E Q E E
|-7--7-7-7--7-x-|-7---7-7--7---7-x-|-7---7-7-7--7-7-|--7----7-7-7-----7-7-|
|-8--8-8-8--8-x-|-7---7-7--7---7-x-|-9---9-9-9--9-9-|--9----9-9-9-----9-9-|
|-7--7-7-7--7-x-|-7---7-7--7---7-x-|-9---9-9-9--9-9-|--9----9-9-9-----9-9-|
|-9--9-9-9--9-x-|-7---7-7--7---7-x-|-9---9-9-9--9-9-|--9----9-9-9-----9-9-|
|-7--7-7-7--7-x-|-9---9-9--9---9-x-|-7---7-7-7--7-7-|--7----7-7-7-----7-7-|
|---------------|-7---7-7--7---7-x-|----------------|---------------------|
|
| PM----|
| W Q. E +H H. E E +E E E E E E a Q
|---------------|------------------|----------------|---------------------|
|---------------|------------------|----------------|---------------------|
|---------------|-------7-(7)------|-9------------9-|-(9)-9-9-9-9-9s4-----|
|-5-------------|------------------|-9------------9-|-(9)-9-9-9-9-9s4-----|
|-5-------------|------------------|-7------------7-|-(7)-7-7-7-7-7s2-----|
|-3-------------|-7----------------|----------------|---------------------|


Em7 Bm7 E
Q E E Q E E Q E E Q E E Q E E Q E E Q E E Q E E
|-7--7-7-7--7-x-|-7----7-7--7---7-x-|-7---7-7-7---7--7-|--7---7-7-7---7-7--|
|-8--8-8-8--8-x-|-7----7-7--7---7-x-|-9---9-9-9---9--9-|--9---9-9-9---9-9--|
|-7--7-7-7--7-x-|-7----7-7--7---7-x-|-9---9-9-9---9--9-|--9---9-9-9---9-9--|
|-9--9-9-9--9-x-|-7----7-7--7---7-x-|-9---9-9-9---9--9-|--9---9-9-9---9-9--|
|-7--7-7-7--7-x-|-9----9-9--9---9-x-|-7---7-7-7---7--7-|--7---7-7-7---7-7--|
|---------------|-7----7-7--7---7-x-|------------------|-------------------|
|
|-------------------------------PM| PM--| PM
| W E Q. +Q E E H. +E E +Q E E E Q E
|---------------|-------------------|------------------|-------------------|
|---------------|-------------------|------------------|-------------------|
|---------------|---7------(7)------|-9----------(9)-9-|-(9)--9-9-9-9---9--|
|-5-------------|-------------------|-9----------(9)-9-|-(9)--9-9-9-9---9--|
|-5-------------|-9--------(9)--9-9-|-7----------(7)-7-|-(7)--7-7-7-7---7--|
|-3-------------|-7--------(7)--7-7-|------------------|-------------------|
H +Q E E


1. 2.
D E D5
Q Q H W W W W
|-5-------------|-----------------|-7--------|-----------||-------------------||
|-7-------------|-----------------|-9--------|----------o||-------------------||
|-7-------------|-----------------|-9--------|-----------||-------------------||
|-7-------------|-----------------|-9--------|-----------||-------------------||
|-5-------------|-----------------|-7--------|----------o||-------------------||
|---------------|-----------------|----------|-----------||-------------------||
|
| PM----------------------|
| Q Q E E E E E E E E E E E E W W E E E E E E a Q
|---------------|-----------------|----------|-----------||-------------------||
|---------------|-----------------|----------|----------o||-------------------||
|-7--7--7-7-7-7-|-7-7-7-7-7-7-7-7-|-9--------|-----------||-x-x-x-x-x-7s4-----||
|-7--7--7-7-7-7-|-7-7-7-7-7-7-7-7-|-9--------|-----------||-x-x-x-x-x-7s4-----||
|-5-----5-5-5-5-|-5-5-5-5-5-5-5-5-|-7--------|----------o||-x-x-x-x-x-5s2-----||
|---------------|-----------------|----------|-----------||-------------------||


Outro
B5
Gtr III (El. Gtr.)
W H E E +Q
|---------------|---------------------|
|---------------|---------------------|
|-7-------------|-7-------7s=12-(12)--|
|---------------|---------------------|
|---------------|---------------------|
|---------------|---------------------|
|
| Gtrs I, II
| Q E E Q Q E E E E Q Q
|---------------|---------------------|
|---------------|---------------------|
|---------------|---------------------|
|-9----9-9\-----|-9-9-9-9-9\----------|
|-9----9-9\-----|-9-9-9-9-9\----------|
|-7----7-7\-----|-7-7-7-7-7\----------|


A5
~~~~~~~~~~~~~~~~~~~~~~~~~~~~~
E E +Q +H +W
|--------------------------|-------------------|
|---12b14==(12)---(12)-----|-(12)--------------|
|--------------------------|-------------------|
|--------------------------|-------------------|
|--------------------------|-------------------|
|--------------------------|-------------------|
|
| E E E E Q Q E E E E Q Q
|--------------------------|-------------------|
|--------------------------|-------------------|
|--------------------------|-------------------|
|-7--7-------7--7---7---x--|---7--7-7-7-7--x---|
|-7--7-------7--7---7---x--|---7--7-7-7-7--x---|
|-5--5-------5--5---5---x--|---5--5-5-5-5--x---|


G5
~~~~~~~~~~~~~~~~~~~~~~~~~~~~~~~~~~~~~~~~~
+H. Q +W
|------------------------|------------------|
|-(12)r----------12b14===|=(12)-------------|
|------------------------|------------------|
|------------------------|------------------|
|------------------------|------------------|
|------------------------|------------------|
|
| E E E E Q Q E E E E Q Q
|------------------------|------------------|
|------------------------|------------------|
|------------------------|------------------|
|---5---5-5-5-5---x------|---5--5-5-5-5--x--|
|---5---5-5-5-5---x------|---5--5-5-5-5--x--|
|---3---3-3-3-3---x------|---3--3-3-3-3--x--|


F#5
~~~~~~~~~~~~~~~~~~~~~~~~~~~~
+W +H Q Q
|--------------------|-----------------------------------|
|-(12)---------------|-(12)r---------------12b14\--------|
|--------------------|---------12b13-12b13-12b13\--------|
|--------------------|-----------------------------------|
|--------------------|-----------------------------------|
|--------------------|-----------------------------------|
| Q E E Q Q
|
| E E E E E E E E E E E E E E Q
|--------------------|-----------------------------------|
|--------------------|-----------------------------------|
|--------------------|-----------------------------------|
|---4--4-4-4-4-4-4-4-|---4---4--4-----4-----4-----4-4/---|
|---4--4-4-4-4-4-4-4-|---4---4--4-----4-----4-----4-4/---|
|---2--2-2-2-2-2-2-2-|---2---2--2-----2-----2-----2-2/---|


B5
E E E E +H +H. Q
|-------------------|------------------------|
|---7-9-10-(10)-----|-(10)-----------10b12===|
|-------------------|------------------------|
|-------------------|------------------------|
|-------------------|------------------------|
|-------------------|------------------------|
|
| Q E E Q Q E E E E Q Q
|-------------------|------------------------|
|-------------------|------------------------|
|-------------------|------------------------|
|-9------9---9\-----|---9--9-9-9-9\----------|
|-9------9---9\-----|---9--9-9-9-9\----------|
|-7------7---7\-----|---7--7-7-7-7\----------|


A5
+H H +H H
|------------------------|------------------------|
|-(10)r-------10b12======|=(10)r-------10b12------|
|------------------------|------------------------|
|------------------------|------------------------|
|------------------------|------------------------|
|------------------------|------------------------|
|
| E E E E Q Q E E E E Q Q
|------------------------|------------------------|
|------------------------|------------------------|
|------------------------|------------------------|
|---7---7-7-7--7------x--|---7---7-7-7--7-----x---|
|---7---7-7-7--7------x--|---7---7-7-7--7-----x---|
|---5---5-5-5--5------x--|---5---5-5-5--5-----x---|


G5
Q H +Q H +E Q.
|----------------------|-----------------------------|
|-----15b19------(15)--|-15b19========(15)r-15b19----|
|----------------------|-----------------------------|
|----------------------|-----------------------------|
|----------------------|-----------------------------|
|----------------------|-----------------------------|
|
| E E E E Q Q E E E E Q Q
|----------------------|-----------------------------|
|----------------------|-----------------------------|
|----------------------|-----------------------------|
|-5-5--5----5-5----x---|--5-----5-5-5---5---------x--|
|-5-5--5----5-5----x---|--5-----5-5-5---5---------x--|
|-3-3--3----3-3----x---|--3-----3-3-3---3---------x--|


F#5
|-----------------5------------------|
H Q Q Q Q Q Q Q
|-----------------------------|--------------------------------------------|
|-15b19-------15b19---15b19---|-15b19---15b19-----15b19---15b19------15b19-|
|-----------------------------|--------------------------------------------|
|-----------------------------|--------------------------------------------|
|-----------------------------|--------------------------------------------|
|-----------------------------|--------------------------------------------|
|
| E E E E E E E E E E E E E E Q
|-----------------------------|--------------------------------------------|
|-----------------------------|--------------------------------------------|
|-----------------------------|--------------------------------------------|
|--4----4-4-4--4----4--4----4-|--4----4-------4-4-------4-------4-4/-------|
|--4----4-4-4--4----4--4----4-|--4----4-------4-4-------4-------4-4/-------|
|--2----2-2-2--2----2--2----2-|--2----2-------2-2-------2-------2-2/-------|


B5
Q Q Q Q E E E E Q E E
||-------------------------------|------------------------------------|
||o-15b19--15b19---15b19--15b19--|---15b19---15b19-15b19--15b19-15b19-|
||-------------------------------|------------------------------------|
||-------------------------------|------------------------------------|
||o------------------------------|------------------------------------|
||-------------------------------|------------------------------------|
|
| Q E E Q Q E E E E Q Q
||-------------------------------|------------------------------------|
||o------------------------------|------------------------------------|
||-------------------------------|------------------------------------|
||---9-----------9--9\-----------|-9--9----9--9-----9\----------------|
||o--9-----------9--9\-----------|-9--9----9--9-----9\----------------|
||---7-----------7--7\-----------|-7--7----7--7-----7\----------------|


A5
|-------3-------|
Q Q Q Q Q Q Q Q Q
|-------------------------------|---------------------------------------|
|-15b19---15b19---15b19--15b19--|-15b19---15b19---15b19---15b19--15b19--|
|-------------------------------|---------------------------------------|
|-------------------------------|---------------------------------------|
|-------------------------------|---------------------------------------|
|-------------------------------|---------------------------------------|
|
| E E E E Q Q E E E E Q Q
|-------------------------------|---------------------------------------|
|-------------------------------|---------------------------------------|
|-------------------------------|---------------------------------------|
|--7----7--7----7--7------x-----|--7----7-------7-------7--7------x-----|
|--7----7--7----7--7------x-----|--7----7-------7-------7--7------x-----|
|--5----5--5----5--5------x-----|--5----5-------5-------5--5------x-----|


G5
E E E E Q E E E E E E E E Q
|------------------------------------|--------------------------------|
|---15b19---15b19-15b19--15b19-15b19-|-15b19-15b19---15b19---15b19----|
|------------------------------------|--------------------------------|
|------------------------------------|--------------------------------|
|------------------------------------|--------------------------------|
|------------------------------------|--------------------------------|
|
| E E E E Q Q E E E E Q Q
|------------------------------------|--------------------------------|
|------------------------------------|--------------------------------|
|------------------------------------|--------------------------------|
|-5--5----5--5-----5------x----------|--5-----5----5--5----5-------x--|
|-5--5----5--5-----5------x----------|--5-----5----5--5----5-------x--|
|-3--3----3--3-----3------x----------|--3-----3----3--3----3-------x--|


F#5
H +H S S E +E E +Q Q
|------------------------|-------------------------------------------|
|-17b19-------(17)-------|-17pb19r17-17b19==(17)r-17b19==(17)r-------|
|------------------------|-------------------------------------------|
|------------------------|-------------------------------------------|
|------------------------|-------------------------------------------|
|------------------------|-------------------------------------------|
|
| E E E E E E E E E E E E E E Q
|------------------------|-------------------------------------------|
|------------------------|-------------------------------------------|
|------------------------|-------------------------------------------|
|--4----4-4-4---4--4-4-4-|--4---------4-------4----4-------4---4-4/--|
|--4----4-4-4---4--4-4-4-|--4---------4-------4----4-------4---4-4/--|
|--2----2-2-2---2--2-2-2-|--2---------2-------2----2-------2---2-2/--|


B5
W E E +E E E +Q.
|-------------------|------------------------------------|
|-17b19-------------|---19b22-(19)-19pb22-19b22==(19)----|
|-------------------|------------------------------------|
|-------------------|------------------------------------|
|-------------------|------------------------------------|
|-------------------|------------------------------------|
|
| Q E E Q Q E E E E Q Q
|-------------------|------------------------------------|
|-------------------|------------------------------------|
|-------------------|------------------------------------|
|--9-------9-9\-----|-9--9------9---9------9\------------|
|--9-------9-9\-----|-9--9------9---9------9\------------|
|--7-------7-7\-----|-7--7------7---7------7\------------|


A5
PM-|
|--3--|
+Q Q E E E Q H Q Q
|-------------------------------|-------------------|
|-(19)r---19b22\----------------|-------------------|
|-------------------------------|-------------------|
|------------------12-12-12-12--|-12/-------17--17--|
|-------------------------------|-------------------|
|-------------------------------|-------------------|
|
| E E E E Q Q E E E E Q Q
|-------------------------------|-------------------|
|-------------------------------|-------------------|
|-------------------------------|-------------------|
|---7---7--7-----7--7--------x--|--7--7-7-7--7---x--|
|---7---7--7-----7--7--------x--|--7--7-7-7--7---x--|
|---5---5--5-----5--5--------x--|--5--5-5-5--5---x--|


G5
PM--| ~~~
Q Q E E E E +W
|-------------------|-----------------|
|-------------------|-----------------|
|-------------------|-----------------|
|-17---17-----7-9-9-|-(9)-------------|
|-------------------|-----------------|
|-------------------|-----------------|
|
| E E E E Q Q E E E E Q Q
|-------------------|-----------------|
|-------------------|-----------------|
|-------------------|-----------------|
|--5-5--5-5-5---x---|--5--5-5-5-5--x--|
|--5-5--5-5-5---x---|--5--5-5-5-5--x--|
|--3-3--3-3-3---x---|--3--3-3-3-3--x--|


F#5
H S E. +Q +E Q. Q Q
|----------------------|------------------------||
|----------------------|-----------------------o||
|----------------------|------------------------||
|-8s======9-9----(9)---|-(9)s11------11---12----||
|----------------------|-----------------------o||
|----------------------|------------------------||
|
| E E E E E E E E E E E E E E Q
|----------------------|------------------------||
|----------------------|-----------------------o||
|----------------------|------------------------||
|-4-4-4-4-4----4--4--4-|--4---4--4-4--4-4--4/---||
|-4-4-4-4-4----4--4--4-|--4---4--4-4--4-4--4/--o||
|-2-2-2-2-2----2--2--2-|--2---2--2-2--2-2--2/---||


Duration Legend
---------------
W - whole; H - half; Q - quarter; E - 8th; S - 16th; T - 32nd; X - 64th; a - acciaccatura
+ - note tied to previous; . - note dotted; .. - note double dotted
Uncapitalized letters represent notes that are staccato (1/2 duration)
Irregular groupings are notated above the duration line
Duration letters will always appear directly above the note/fret number it represents the
duration for. Duration letters with no fret number below them represent rests. Multi-
bar rests are notated in the form Wxn, where n is the number of bars to rest for. Low
melody durations appear below the staff

Tablature Legend
----------------
h - hammer-on
p - pull-off
b - bend
pb - pre-bend
r - bend release (if no number after the r, then release immediately)
/\ - slide into or out of (from/to "nowhere")
s - legato slide
S - shift slide
- natural harmonic
[n] - artificial harmonic
n(n) - tapped harmonic
~ - vibrato
tr - trill
T - tap
TP - trem. picking
PM - palm muting
\n/ - tremolo bar dip; n = amount to dip
\n - tremolo bar down
n/ - tremolo bar up
/n\ - tremolo bar inverted dip
= - hold bend; also acts as connecting device for hammers/pulls
<> - volume swell (louder/softer)
x - on rhythm slash represents muted slash
o - on rhythm slash represents single note slash

Misc Legend
-----------
| - bar
|| - double bar
||o - repeat start
o|| - repeat end
*| - double bar (ending)
: - bar (freetime)
$ - Segno
& - Coda
Tempo markers - = BPM(8/16=s8/s16), where s8 = swing 8ths, s16 = swing 16ths
Song info
Moonage Daydream
David Bowie
2001
  • Rock
  • Classic Rock
  • Glam
  • Pop Rock
Alternative tracks
Similar songs
Ah Leah - Donnie Iris
Dont Get Me Wrong - The Pretenders
Down Down - Status Quo
Lowdown - Boz Scaggs

Hi! Hope you enjoy backing track experience.
If you want to help us in the development of the project, feel free to donate!