Hole In The Earth - Deftones
00:00 / 00:00
Tabs and lyrics
Tunning: Drop C (C G C F A D)
-------------------------------------------------------------------------------
Hole in the Earth - Deftones
-------------------------------------------------------------------------------
Tabbed by: cyrus
Email:

This is the badass new song from the Saturday Night Wrist. You can hear the song on the
myspace. http://www.myspace.com/deftones. It’s a great song (listen to the words too
just the guitar)

Tuning: Drop C (C,G,C,F,A,D)

intro
D|-------------------------------------------------------------------------|
A|-------------------------------------------------------------------------|
F|-------------------------------------------------------------------------|
C|---4--4--4--4---2---4---2---4--4----2--2--2--2--2--2--2--2--2--2--2--2---|
G|---4--4--4--4---2---4---2---4--4----2--2--2--2--2--2--2--2--2--2--2--2---|
C|---4--4--4--4---2---4---2---4--4----2--2--2--2--2--2--2--2--2--2--2--2---|

D|-----------------------------------------------------------------|
A|-----------------------------------------------------------------|
F|-----------------------------------------------------------------|
C|---4--2--4--2--4--2--4--4---2--2--2--2--2--2--2--2--2--2--2--2---|
G|---4--2--4--2--4--2--4--4---2--2--2--2--2--2--2--2--2--2--2--2---|
C|---4--2--4--2--4--2--4--4---2--2--2--2--2--2--2--2--2--2--2--2---|

ring
D|--------------------------------------------------------------|
A|--------------------------------------------------------------|
F|--------------------------------------------------------------|
C|---4--4--4--4---2---4---2---4--4----2-------------------------|
G|---4--4--4--4---2---4---2---4--4----2-------------------------|
C|---4--4--4--4---2---4---2---4--4----2-------------------------|

Verse part
D|-------------------|-|----------------------------------|
A|-------------------|o|----------------------------------|
F|--/13----/14-------|-|-------8------/13----/14----------|
C|-------------------|-|----------------------------------|
G|--/11----/12-------|o|-------6------/11----/12----------|
C|-------------------|-|----------------------------------|

Chorus part
Repeat this frame mostly this one is also in the chorus
D|----11--------------11-------------|-----14----11----------14----11---------|
A|---------12-----9--------12-----9--|-----------------12----------------12---|
F|-----------------------------------|----------------------------------------|
C|-----------------------------------|----------------------------------------|
G|-----------------------------------|----------------------------------------|
C|-----------------------------------|----------------------------------------|

Filler
D|-------------------------------------------------------------------------|
A|-------------------------------------------------------------------------|
F|-------------------------------------------------------------------------|
C|---4--4--4--4---2---4---2---4--4----2--2--2--2--2--2--2--2--2--2--2--2---|
G|---4--4--4--4---2---4---2---4--4----2--2--2--2--2--2--2--2--2--2--2--2---|
C|---4--4--4--4---2---4---2---4--4----2--2--2--2--2--2--2--2--2--2--2--2---|
ring
D|----------------------------------|
A|----------------------------------|
F|----------------------------------|
C|---4--2--4--2--4--2--4--4---2-----|
G|---4--2--4--2--4--2--4--4---2-----|
C|---4--2--4--2--4--2--4--4---2-----|


Outro
D|------------------------------------|
A|------------------------------------|
F|------------------------------------|
C|---4--4--4--4---2---4---2---4--4----|
G|---4--4--4--4---2---4---2---4--4----|
C|---4--4--4--4---2---4---2---4--4----|

D|------------------------------------|
A|------------------------------------|
F|------------------------------------|
C|---4--4--4--4---2---4---2---4--4----|
G|---4--4--4--4---2---4---2---4--4----|
C|---4--4--4--4---2---4---2---4--4----|

D|------------------------------------|
A|------------------------------------|
F|------------------------------------|
C|---4--4--4--4---2---4---2---4--4----|
G|---4--4--4--4---2---4---2---4--4----|
C|---4--4--4--4---2---4---2---4--4----|

D|--------------------------------------------------------------|
A|--------------------------------------------------------------|
F|--------------------------------------------------------------|
C|--4----4--5--0--4----4--5--0--4----4--5--0--4----4--5--0--4---|
G|--4----4--5--0--4----4--5--0--4----4--5--0--4----4--5--0--4---|
C|--4----4--5--0--4----4--5--0--4----4--5--0--4----4--5--0--4---|

D|--------------------------------------------------------------|
A|--------------------------------------------------------------|
F|--------------------------------------------------------------|
C|--4----4--5--0--4----4--5--0--4----4--5--0--4----4--5--0--4---|
G|--4----4--5--0--4----4--5--0--4----4--5--0--4----4--5--0--4---|
C|--4----4--5--0--4----4--5--0--4----4--5--0--4----4--5--0--4---|

D|--------------------------------------------------------------|
A|--------------------------------------------------------------|
F|--------------------------------------------------------------|
C|--4----4--5--0--4----4--5--0--4----4--5--0--4----4--5--0--4---|
G|--4----4--5--0--4----4--5--0--4----4--5--0--4----4--5--0--4---|
C|--4----4--5--0--4----4--5--0--4----4--5--0--4----4--5--0--4---|
D|--------------------------------------------------------------|
A|--------------------------------------------------------------|
F|--------------------------------------------------------------|
C|--4----4--5--0--4----4--5--0--4----4--5--0--4----4--5--0--4---|
G|--4----4--5--0--4----4--5--0--4----4--5--0--4----4--5--0--4---|
C|--4----4--5--0--4----4--5--0--4----4--5--0--4----4--5--0--4---|


These repeat as it fades out
D|----11--------------11-------------|-----14----11----------14----11---------|
A|---------12-----9--------12-----9--|-----------------12----------------12---|
F|-----------------------------------|----------------------------------------|
C|-----------------------------------|----------------------------------------|
G|-----------------------------------|----------------------------------------|
C|-----------------------------------|----------------------------------------|


| / slide up
| \ slide down
| h hammer-on
| p pull-off
| ~ vibrato
| + harmonic
| x Mute note
===============================================================================
Tunning: Standard (E A D G B e)
Awesome new Deftones song!
This song is tuned in Drop D EBGDAD tuning
I watched Steph play the song live so i know the main riff chords are right.
Enjoy.

Main Riff
|---------------------------------------------------------------------------------|
|---------------------------------------------------------------------------------|
|9-9-9-9--7-9--7-9--7-7--7-7--7-7--7-7--7-9--7-9--7-9--7-9--7-7--7-7--7-7--7-7--7-|
|9-9-9-9--7-9--7-9--7-7--7-7--7-7--7-7--7-9--7-9--7-9--7-9--7-7--7-7--7-7--7-7--7-|
|7-7-7-7--5-7--5-7--5-5--5-5--5-5--5-5--5-7--5-7--5-7--5-7--5-5--5-5--5-5--5-5--5-|
|---------------------------------------------------------------------------------|



Verse
|---------------------------------------------------|
|--7--7-7--7---8--8-8--8----------------------------|
|--x--x-x--x---x--x-x--x---6---6-6---6-6---6-6---6--|
|--4--4-4--4---5--5-5--5---x---x-x---x-x---x-x---x--| x 2
|--------------------------4---4-4---4-4---4-4---4--|
|---------------------------------------------------|

|-------------------------------------|
|----10-----9-10-9-----10-----9-10-9--|
|-11----11----------11----11----------|
|-------------------------------------| x 2
|-------------------------------------|
|-------------------------------------|


Chorus
|-9-----------9---------12----------9------------|
|----10----------10---------10---------10--------|
|---------11---------11---------11---------11----|
|------------------------------------------------|
|------------------------------------------------|
|------------------------------------------------|


Ending
|------------------------------|------------------|
|------------------------------|------------------|
|------------------------------|------------------|
|-2--3-2-0-2--3-2-0-2--3-2-0-2-|-3-2p0-0----------|
|-2--3-2-0-2--3-2-0-2--3-2-0-2-|-3-2p0-0----------|
|-2--3-2-0-2--3-2-0-2--3-2-0-2-|-3-2p0-0----------|
Tunning: Standard (E A D G B e)
Deftones - "Hole in the Earth"
Tabbed by: S2S (Cory McKnight)
Email: sic133mhz@hotmail.com
Tuning: Drop D

This tab is a little bit of a hybrid between Chino and Stephen's
guitars. Stephen plays a very down tuned seven string while Chino
plays a Drop D six string, but you'll be able to play the whole
song with one Drop D six string using this tab. Enjoy!

[Intro]
e|--------------------------------------------------------------------|
B|---------------------3~------------------3~----------------------3~-|
G|---------------------2~------------------2~----------------------2~-|
D|--2-2-2-2-0--2-0--2--0~---2-0-2-0-2-0-2--0~---2-2-2-2-0--2-0--2--0~-|
A|--2-2-2-2-0--2-0--2--0~---2-0-2-0-2-0-2--0~---2-2-2-2-0--2-0--2--0~-|
D|--2-2-2-2-0--2-0--2--0~---2-0-2-0-2-0-2--0~---2-2-2-2-0--2-0--2--0~-|

[Verse]
("Can you explain...") Listen for the strumming
e|---------------------------------------------------|
B|---------------------------------------------------|
G|--11-11-11/12-12-12--6-6-6-6/11--------------------|
D|--x--x--x-/x--x--x---x-x-x-x/x--(play four times)--|
A|--9--9--9-/10-10-10--4-4-4-4/9---------------------|
D|---------------------------------------------------|

[Chorus]
("There's a hole in the earth...")
e|-9-----9----12----9-------------------|
B|--10----10----10---10-----------------|
G|----11----11----11---11-(play twice)--|
D|--------------------------------------|
A|--------------------------------------|
D|--------------------------------------|

[Post Chorus:]
e|---------------------------------------------|
B|---------------------3~------------------3~--|
G|---------------------2~------------------2~--|
D|--2-2-2-2-0--2-0--2--0~---2-0-2-0-2-0-2--0~--|
A|--2-2-2-2-0--2-0--2--0~---2-0-2-0-2-0-2--0~--|
D|--2-2-2-2-0--2-0--2--0~---2-0-2-0-2-0-2--0~--|

[VERSE:]
Same as above

[2nd Chorus:]
("There's a hole in the earth...")
e|-9-----9----12----9-------------------------|
B|--10----10----10---10-----------------------|
G|----11----11----11---11-(play eight times)--|
D|--------------------------------------------|
A|--------------------------------------------|
D|--------------------------------------------|

[Bridge:] Just strum the chorus chords like this:
"Please take a bow...This is the end..." etc.
e|-9-------------12----------------9---------|
B|-10------------11----------------10--------|
G|-11------------10----------------11--------|
D|-------------------------------------------|
A|-------------------------------------------|
D|-------------------------------------------|

[3rd Chorus:]
e|-9-----9-----12-----9-------------------------------|
B|--10----10-----10----10-----------------------------|
G|----11----11-----11----11-(repeat until "I'm out")--|
D|----------------------------------------------------|
A|----------------------------------------------------|
D|----------------------------------------------------|

[Outro] Part 1:
("There's a hole in the earth, I'm amazed...")
e|-9-----9-----9-----9----------------------------------|
B|--10----10----10----10--------------------------------|
G|----11----11----11----11-(repeat until outro part 2)--|
D|------------------------------------------------------|
A|------------------------------------------------------|
D|------------------------------------------------------|

[Outro] Part 2:
e|------------------------------------------|
B|------------------------------------------|
G|------------------------------------------|
D|--2-2-2-2-0--2-0--2-0-(play three times)--|
A|--2-2-2-2-0--2-0--2-0---------------------|
D|--2-2-2-2-0--2-0--2-0---------------------|

[Outro] Part 3:
e|-------------------------------------------------------|
B|---------------------------------------------------3~--|
G|---------------------------------------------------2~--|
D|-------------------------------------------END ON:-0~--|
A|---------------------------------------------------0~--|
D|--2~-3-2-0--2~-3-2-0-(play fourteen times)---------0~--|


************************************

| ~ Vibrato
| / Slide up
| x Dead note

************************************
Song info
Hole In The Earth
Deftones
2001
  • Rock
  • Alternative Rock
Similar songs
Right Here Right Now - Jesus Jones
All Apologies - Nirvana
This Is A Call - Foo Fighters
Who Was In My Room Last Night - Butthole Surfers

Hi! Hope you enjoy backing track experience.
If you want to help us in the development of the project, feel free to donate!