Life In The Fast Lane - Eagles
00:00 / 00:00
Tabs and lyrics
Tunning: Standard (E A D G B e)
e|---------------------------|--------------------------|
B|---------------------------|--------------------------|
G|---------------------------|--------------------------|
D|-----7---5-----------------|-----7---5----------------|
A|-5h7---7-----7p5-----------|-5h7---7----7p5-----------|
E|-----------------7-5/3---0-|----------------7-5/3b----|

e|-----------------------------------------------------|
B|-----------------------------------------------------|
G|-----------------------------------------------------|
D|-----7---5--------------------7---5------------------|
A|-5h7---7---7p5------------5h7---7---7p5--------------|
E|----------------7-5/3-0------------------7-5/3-5-6-7-|

e|----------------|---------------------|
B|----------------|---------------------|
G|----------------|---------------------|
D|---5p2-0h2-2~~~-|---5p2-0h2-2p0-------|
A|----------------|--------------2------|
E|----------------|-----------------3p0-|


[Verse]

e|--7-7-7---5---4--|-7-7-7----|--7-7-7--5--4--|-7-7-7----|
B|--7-7-7---5---5--|-7-7-7----|--7-7-7--5--5--|-7-7-7----|
G|--7-7-7---6---4--|-7-7-7----|--7-7-7--6--4--|-7-7-7----|
D|--6-6-6----------|-6-6-6----|--6-6-6--------|-6-6-6----|
A|-----------------|----------|---------------|----------|
E|-----------------|----------|---------------|----------|


e|--0--------------------------------------------------------|
B|--2--------------------------------------------------------|
G|--2--------------------------------------------------------|
D|--2-----------------5p2-0h2-2~~~--------5p2-0h2-2p0--------|
A|--0-------------------------------------------------2------|
E|-----------------------------------------------------3-0---|

They had one thing... ...faster faster, the lights are turnin' red.

e|-2--------------|--0---------|
B|-4--------------|--2---------|
G|-4--------------|--0---------|
D|-4--------------|--2---------|
A|-2--------------|--0---------|
E|----------------|------------|

e|---------------------------|--------------------------|
B|---------------------------|--------------------------|
G|---------------------------|--------------------------|
D|-----7---5-----------------|-----7---5----------------|
A|-5h7---7-----7p5-----------|-5h7---7----7p5-----------|
E|-----------------7-5/3---0-|----------------7-5/3b----|

e|-----------------------------------------------------|
B|-----------------------------------------------------|
G|-----------------------------------------------------|
D|-----7---5--------------------7---5------------------|
A|-5h7---7---7p5------------5h7---7---7p5--------------|
E|----------------7-5/3-0------------------7-5/3-5-6-7-|


He was too tired to make it she was too tired to fight about it.

e|--0------------0-------------|-0------|
B|--2------------3-------------|-5------|
G|--0------------0-------------|-0------|
D|--2------------4-------------|-5------|
A|--0------------0-------------|-0------|
E|-----------------------------|--------|

Now play the intro twice, then go into the following solo.
There are 2 guitars going at it, so you will have to bear with me.

==================================================

[GUITAR 1]

all 1 step.................
e|------|-------------------------------------|--------------------|
B|------|-14^-14^-14^-14^-14^-14^-14^-14p12---|-12h14-12~~~~~~-----|
G|------|----------------------------------13-|--------------------|
D|------|-------------------------------------|--------------------|
A|------|-------------------------------------|--------------------|
E|------|-------------------------------------|--------------------|

[GUITAR 2]

w/slide: Tuning (low to high): E B E G# B E
grad. slide

e|-0--/-|-7-------7---------------------------|--------------------|
B|-0--/-|-7-------7---------------------------|--------------------|
G|-0--/-|-7-------7---------------------------|-----------------7\-|
D|-0--/-|-9-------9---------------------------|-----------------7\-|
A|------|-------------------------------------|-----------------7\-|
E|------|-------------------------------------|--------------------|

==================================================

[GUITAR 1]

e|-------------------------------------|
B|----7-----7--------------------------|
G|----7-----7--------------------------|
D|----7-----7--------------------------|
A|----5-----5--------------------------|
E|-------------------------------------|

[GUITAR 2]

e|-------10-10~~~~-10------------------|
B|--9h10-------------10p8---------10p8-|
G|------------------------9h10---------|
D|-----------------------------10------|
A|-------------------------------------|
E|-------------------------------------|

==================================================

[GUITAR 1] slow 1/2 full slow 1/2
1/2
e|----------------------------------12-13-14-------------------------|
B|---------/12-14-15^----15-15^--15^---------14^-12-12~~~~~~~~~------|
G|-------------------------------------------------------------------|
D|-------------------------------------------------------------------|
A|-------------------------------------------------------------------|
E|-------------------------------------------------------------------|

[GUITAR 2]

grad. slide slide
e|-------------------------------------------------------------------|
B|-----------------------------------------7------7--7--7/10\5--5/17-|
G|-9--/--10-10-10-10-\-7-------------------7------7--7--7/10\5-------|
D|-9--/--10-10-10-10-\-7-------------------7------7--7--7/10\5-------|
A|----------10-10-10-\-7---------------------------------------------|
E|------------------------------------------------|------------------|

==================================================

[GUITAR 1]

e|--------------------------------|-------------------|
B|-2------------------------------|-------------------|
G|-2------------------------------|-------------------|
D|-2------------------------------|-------------------|
A|-0------------------------------|-7----------4-5-6--|
E|--------------------------------|----4-5-6-7--------|

[GUITAR 2]
grad. slide
e|-17----17-----------------------|-12\---------------|
B|----17----17-15-----------------|-12\---------------|
G|----------------17-----------17-|-12\--7-/-8--/--11-|
D|-------------------17~~-17~~-17-|-12\--7-/-8--/--11-|
A|-----------------------------17-|------7-/-8--/--11-|
E|--------------------------------|-------------------|

==================================================


[GUITARS 1 & 3]

e|----------------------------------------------|
B|-10p9--9--10p9--9--10p9--9-9--10 10-10p9--9-9-|
G|-9-----9--9-----9--9-----9-9--9--9--9-----9-9-|
D|-11p9--9--11p9--9--11p9--9-9--11-11-11p9--9-9-|
A|----------------------------------------------|
E|----------------------------------------------|


[GUITAR 2]

e|-----------------------------|
B|-15b-15b-15b-15-13-15-13~~~~-|
G|-----------------------------|
D|-----------------------------|
A|-----------------------------|
E|-----------------------------|



************************************

| h Hammer-on
| p Pull-off
| b Bend
| / Slide up
| \ Slide down
| ~ Vibrato
| ^ Bend
************************************
Song info
Life In The Fast Lane
Eagles
2001
  • Rock
  • Classic Rock
  • Country Rock
Alternative tracks
Similar songs
Cest la vie - Bob Seger
Fools Rush In - Ricky Nelson
Whisky In The Jar - Thin Lizzy
Shes So Cold - The Rolling Stones
Long As I Can See The Light - Creedence Clearwater Revival

Hi! Hope you enjoy backing track experience.
If you want to help us in the development of the project, feel free to donate!