Love Will Keep Us Alive - Eagles
00:00 / 00:00
Tabs and lyrics
Tunning: Standard (E A D G B e)

From "Hell Freezes Over"
Written by Pete Vale/Jim Capaldi/Paul Carrack


- Right, this is probably way off, but don't take my word for it. I didn't
tab this with accuracy in mind (it won't make a diff anyhow), just
simplicity. Slide Solo, anyone ?
Corrections,improvements ?, please email.

4/4 Timing.


[Verse]

[----------------- Fill I ------------------------]
Asus2 Asus2
e|-------0--------------0--|-------0--------------0--|
B|----------0--------0-----|----------0--------0-----|
G|----------------2--------|----------------2--------|
D|----2--------------------|----2--------------------|
A|-0-----------------------|-0-----------------------|
E|-------------------------|-------------------------|
...standing All alone...

Esus4/F# Esus4/F#
e|-------0--------------0--|-------0--------------0--|
B|----------0--------0-----|----------0--------0-----|
G|----------------2--------|----------------2--------|
D|----2--------------------|----2--------------------|
A|-------------------------|-------------------------|
E|-2-----------------------|-2-----------------------|
...world outside

E7sus4/B E7sus4/B
e|-------0--------------0--|-------0--------------0--|
B|----------0--------0-----|----------0--------0-----|
G|----2-----------2--------|----2-----------2--------|
D|-------------------------|-------------------------|
A|-2-----------------------|-2-----------------------|
E|-------------------------|-------------------------| End of VERSE
...searching.. ...for a place...

[------------------- Fill II ----------------------]
E E
e|-------0--------------0--|--------------------0----|
B|----------0--------0-----|----------0------0-------|
G|----------------1--------|-------1-----1h2------2--|
D|----2--------------------|----2--------------------|
A|-------------------------|-------------------------|
E|-0-----------------------|-0-----------------------|
...hide

[------- Fill III -------]
e|-------0-----------0-----|
B|----------1-----------1--|
G|----------------2--------|
D|----2--------------------|
A|-------------2-----------|
E|-0-----------------------|
Love ....keep


[Chorus]

D D
e|-------2--------------2--|--------2--------------2--|
B|----------3--------3-----|-----------3--------3-----|
G|----2-----------2--------|-----2-----------2--------|
D|-0-----------------------|--0-----------------------|
A|-------------------------|--------------------------|
E|-------------------------|--------------------------|
..die for you.. ..highest mountain

F#m F#m
e|-------2--------------2--|--------2--------------2--|
B|----------2--------2-----|-----------2--------2-----|
G|----------------2--------|-----------------2--------|
D|----4--------------------|-----4--------------------|
A|-------------------------|--------------------------|
E|-2-----------------------|--2-----------------------|

Bm7 Bm7
e|-------2--------------2--|--------2--------------2--|
B|----------3--------3-----|-----------3--------3-----|
G|----------------2--------|-----------------2--------|
D|----4--------------------|-----4--------------------|
A|-2-----------------------|--2-----------------------|
E|-------------------------|--------------------------|

E
e|----------0-----------0-----------0-------|
B|-------0-----------0-----------0----------|
G|----1-----------1-----------1-------------|
D|-------------0----------------------------|
A|-------------------------4-----------2----|
E|-0----------------------------------------| END of CHORUS


[End[

Asus2 X 3 Asus2
e|-------0--------------0--|----0--------------------|
B|----------0--------0-----|----0--------------------|
G|----------------2--------|----2--------------------|
D|----2--------------------|----2--------------------|
A|-0-----------------------|----0--------------------|
E|-------------------------|-------------------------|


[Intro]

[Verse + Fill II]

[Verse + Fill II]

I was standing
All alone against the world outside
You were searching
For a place to hide


[Verse + Fill III]

Lost and lonely
Now you've given me the will to survive
When we're hungry...love will keep us alive


[Fill I]


[Verse + Fill II]

Don't you worry
Sometimes you've just gotta let it ride
The world is changing
Right before your eyes


[Verse + Fill III]

Now I've found you
There's no more emptiness inside
When we're hungry...love will keep us alive


[Fill I]


[Chorus]

I would die for you
Climb the highest mountain
Baby, there's nothing I wouldn't do


[Verse + Fill III]

Now I've found you
There's no more emptiness inside
When we're hungry...love will keep us alive


[Solo]


[Chorus]

I would die for you
Climb the highest mountain
Baby, there's nothing I wouldn't do


[Verse + Fill II]

I was standing
All alone against the world outside
You were searching
For a place to hide


[Verse + Fill III + Ending]

Lost and lonely
Now you've given me the will to survive
When we're hungry...love will keep us alive X 3
Tunning: Standard (E A D G B e)
Love Will Keep Us Alive - The Eagles

Tabbed by: Sin Yi
Email: sinyi4@hotmail.com

-Intro is from * to @
-(R*) means repeat from *

*
e||---------0-----------------0---|---------0-----------------0-----|
B||-------------0----------0------|-------------0---------0---------|
G||------2-------------2----------|------2-------------2------------|
D||--2----------------------------|---2-----------------------------|
A||--0----------------------------|---0-----------------------------|
E||-------------------------------|---------------------------------|
¡Kstand - ding ¡K all a ¡Vlone¡K

e|---------0------------------0---|----------0----------------0-----|
B|-------------0-----------0------|-------------0----------0--------|
G|-------2-------------2----------|-------2-------------2-----------|
D|---2----------------------------|---2-----------------------------|
A|--------------------------------|---------------------------------|
E|---2----------------------------|---2-----------------------------|
¡Kworld¡K outside¡K you were¡K

e|----------0-----------------0---|---------0----------------0------|
B|-------------0-----------0------|------------0----------0---------|
G|---2---2--------------2---------|---2--2-------------2------------|
D|---0----------------------------|---0-----------------------------|
A|--------------------------------|---------------------------------|
E|--------------------------------|---------------------------------|
searching¡K ¡Kfor a place to hide¡K

@
e|---------0------------------0---|-------------0--------------0----|
B|------------0------------0------|----------0-------------0--------|
G|------2---------------2---------|-------2---------1 / 2-----------|
D|---2----------------------------|---2-------------0---------------|
A|--------------------------------|---------------------------------|
E|---0----------------------------|---0-------------0---------------|
Lost and¡K

e|----------0-----------------0---|---------0-----------------0-----|
B|--------------0----------0------|-------------0---------0---------|
G|-------2-------------2----------|------2-------------2------------|
D|---2----------------------------|---2-----------------------------|
A|---0----------------------------|---0-----------------------------|
E|--------------------------------|---------------------------------|
¡Klone - ly now¡K

e|---------0---------------0------|----------0----------------0-----|
B|-------------0--------------0---|-------------0----------0--------|
G|-------2-------------2----------|-------2-------------2-----------|
D|---2----------------------------|---2-----------------------------|
A|--------------------------------|---------------------------------|
E|---2----------------------------|---2-----------------------------|
will to survive when we're


e|----------0-----------------0---|---------0----------------0------|
B|-------------0-----------0------|------------0----------0---------|
G|---2---2--------------2---------|---2--2-------------2------------|
D|---0----------------------------|---2-----------------------------|
A|--------------------------------|---------------------------------|
E|--------------------------------|---------------------------------|
hun - gry¡K love will keep us alive¡K

e|----------0-----------------0---|---------0-----------------0----||
B|--------------0----------0------|-------------0---------0--------||
G|-------2-------------2----------|------2-------------2-----------||
D|---2----------------------------|---2----------------------------||
A|---0----------------------------|---0----------------------------||
E|--------------------------------|--------------------------------||
¡Kdon¡¦t you¡K(R*)
¡KI will¡K

e|----------2-----------------2---|---------2-----------------2-----|
B|--------------3----------3------|-------------3---------3---------|
G|---2---2-------------2----------|---2---2------------2------------|
D|---0----------------------------|---0-----------------------------|
A|--------------------------------|---------------------------------|
E|--------------------------------|---------------------------------|
¡Kdie for you¡K climb the¡K

e|----------2-----------------2---|----------2----------------2-----|
B|--------------2----------2------|--------------2--------2---------|
G|---------------------2----------|--------------------2------------|
D|---4---4------------------------|---4---4-------------------------|
A|---4----------------------------|---4-----------------------------|
E|--------------------------------|---------------------------------|
¡Khigh - est moun - tain¡K

e|----------2-----------------2---|----------2----------------0-----|
B|--------------3----------3------|-------------3---------3---------|
G|---2---2-------------2----------|---2---2------------2------------|
D|---0----------------------------|---0-----------------------------|
A|--------------------------------|---------------------------------|
E|--------------------------------|---------------------------------|
baby¡K there¡¦s nothing¡K ¡Kwouldn¡¦t

(slide but also pluck)
e|--------------0-------------0---|-------------0------------------||
B|----------0--------------0------|----------0---------------------||
G|---1---2----------1 / 2---------|---1-/-2-----/---1--------------||
D|---2--------------0-------------|--------------------------------||
A|--------------------------------|---4---------/---2--------------||
E|---0----------------------------|--------------------------------||
do¡K ¡KI was¡K(R*)

[End]
Repeat the verse ¡¥¡Kwhen we¡¦re hungry, love will keep us alive¡K¡¦
3 times¡K and end with
~~~
e|----------0-----------------0---|---------0-----------------0--0-||
B|--------------0----------0------|-------------0---------0------0-||
G|-------2-------------2----------|------2-------------2---------2-||
D|---2----------------------------|---2--------------------------2-||
A|---0----------------------------|---0--------------------------0-||
E|--------------------------------|--------------------------------||

[Lyrics]
I was standing
All alone against the world outside
You were searching
For a place to hide

Lost and lonely
Now you've given me the will to survive
When we're hungry...love will keep us alive

Don't you worry
Sometimes you've just gotta let it ride
The world is changing
Right before your eyes
Now I've found you
There's no more emptiness inside
When we're hungry...love will keep us alive

I would die for you
Climb the highest mountain
Baby, there's nothing I wouldn't do

I was standing
All alone against the world outside
You were searching
For a place to hide
Lost and lonely
Now you've given me the will to survive
When we're hungry...love will keep us alive
When we're hungry...love will keep us alive
When we're hungry...love will keep us alive


************************************

| / Slide up
| ~ Vibrato

************************************
Song info
Love Will Keep Us Alive
Eagles
2001
  • Rock
  • Classic Rock
  • Country Rock
Similar songs
Free Ride - The Edgar Winter Group
Talking In Your Sleep - Crystal Gayle
Going To California - Led Zeppelin
Privat Investigation - Dire Straits

Hi! Hope you enjoy backing track experience.
If you want to help us in the development of the project, feel free to donate!