Sorry Seems To Be The Hardest Word - Elton John
00:00 / 00:00
Tabs and lyrics
Tunning: Standard (E A D G B e)
interpret: Elton John
song: Sorry Seems To Be The Hardest Word
album: Blue Moves
capo: 3
setting: Standart


C D/C D7/F# Em Em7 Esus/C# G Am B/A
e|--0--|--2--|---2---|--0--|--0--|----0----|--3--|--0--|--2--|
B|--1--|--1--|---1---|--0--|--3--|----0----|--0--|--1--|--0--|
G|--0--|--2--|---2---|--0--|--0--|----2----|--0--|--2--|--2--|
D|--2--|--0--|---0---|--2--|--2--|----2----|--0--|--2--|--1--|
A|--3--|--0--|---x---|--2--|--2--|----4----|--2--|--0--|--2--|
E|--0--|--x--|---2---|--0--|--0--|----x----|--3--|--x--|--x--|

intro:


e|-0-0--0-0--0-0--0--3-2-0---0---0--------------------0---0-2-0-------|
B|-3-3--2-2--1-1--0--------0-1---1------------------1---4-------4-----|
G|-----------------------------2---2-1h2-----------2--------------2---|
D|---------------------------------------2--------2-----------------4-|
A|---------------------------0-------------3-2-0-3--------------------|
E|--------------------------------------------------------------------|

verse 1:

Em Em7 Am
e|-----0------------------0-------0--------0---------0------------|
B|-0---0------------------0-------3--------1---------1----3-1-0-1-|
G|-0---0------------------0-------0--------2---------2------------|
D|-2--------------------------------------------------------------|
A|-2-2-------------2---------2---------2-----------0----0---------|
E|----------------------------------------------------------------|

What have I got to do to make you love me?

D/C G
e|-2---2------------------2-----2--------3------3-------0-----|
B|-1---1------------------1-----1--------0------0-------0---4-|
G|-2---2------------------2-----2--------0------0-----2-------|
D|--------------------------------------------------------2---|
A|-0-0-------------0---------0-------0--------------------2---|
E|--------------------------------------------3---3---2-------|

What have I got to do to make you care?

Em Em7 Am
e|-----0---------0---------0---------0------------0-----------|
B|-0---0---------0---------3---------1------------1---3-1-0-1-|
G|-0---0---------0---------0---------2------------2-----------|
D|-2----------------------------------------------------------|
A|-2-2---------2----2-----------2---------------0---0---------|
E|------------------------------------------------------------|

What do I do when lightning strikes me?

D/C G
e|-2-------2-------2---------2---------3-------3-------0-----|
B|-1-------1-------1---------1---------0-------0-------0---4-|
G|-2-------2-------2---------2---------0-------0-----2-------|
D|-------------------------------------------------------2---|
A|-0-0----------0-------0----------0---------------------2---|
E|-------------------------------------------3---3---2-------|

And I wake to find that youre not there?

verse 2:

Em Em7 Am
e|-----0---------0-------0--------0---------0------------|
B|-0---0---------0-------3--------1---------1----3-1-0-1-|
G|-0---0---------0-------0--------2---------2------------|
D|-2-----------------------------------------------------|
A|-2-2---------2----2---------2-----------0----0---------|
E|-------------------------------------------------------|

What do I do to make you want me?

D/C G
e|-2---2------------------2-------2----3------3-------0-----|
B|-1---1------------------1-------1----0------0-------0---4-|
G|-2---2------------------2-------2----0------0-----2-------|
D|------------------------------------------------------2---|
A|-0-0-------------0---------0------0-------------------2---|
E|------------------------------------------3---3---2-------|

What have I got to do to be heard?

Em Em7 Am
e|-----0---------0----------0---------0------0------------|
B|-0---0---------0----------3---------1------1----3-1-0-1-|
G|-0---0---------0----------0---------2------2------------|
D|-2------------------------------------------------------|
A|-2-2---------2-----2--------------2------0----0---------|
E|--------------------------------------------------------|

What do I say when its all over

D/C G
e|-2---2-------2-----------2-------2-----3------3-------0-----|
B|-1---1-------1-----------1-------1-----0------0-------0---4-|
G|-2---2-------2-----------2-------2-----0------0-----2-------|
D|--------------------------------------------------------2---|
A|-0-0-------0-------0-------0--------0-------------------2---|
E|--------------------------------------------3---3---2-------|

And sorry seems to be the hardest word?

chorus:

Em B/A Em Esus/C#
e|-----0---2---2-----0-------0--------0---0----|
B|-0---0---0---0-----0-------0--------0---0----|
G|-0---0---2---2-----0-------0--------2---2----|
D|-2-------1-1---1-----------------------------|
A|-2-2---2-----------2-2----------2---4-4----4-|
E|---------------------------------------------|

Its sad, so sad. Its a sad, sad situation

C B/A Em
e|-0---0---------------2----------2--------0-----------|
B|-1---1---------------0----------0----0---0---2---4---|
G|-0---0---------------2----------2----0---0---2---2---|
D|-------------------------------------2---------2---4-|
A|-3-3---------3-------2--------2----2-2-2---2-4---2---|
E|-----------------------------------------------------|

And its getting more and more absurd

Em B/A Em Esus/C#
e|-----0---2---2------0-----0--------0------0---|
B|-0---0---0---0------0-----0--------0------0---|
G|-0---0---2---2------0-----0--------2------2---|
D|-2-------1-1---1------------------------------|
A|-2-2---2------------2-2---------2--4----4---4-|
E|----------------------------------------------|

Its sad, so sad. Why can't we talk it over

C Am B/A Em
e|-0---0--------------0---0------0-----0--------2-------2----------0----|
B|-1---1--------------1---1------1-----1--------0-------0------0---0----|
G|-0---0--------------0---0------2-----2--------2-------2------0---0----|
D|-------------------------------------------------------------2--------|
A|-3-3-------3----------3---2----0-0---------0--2--2------2----2-2---2--|
E|----------------------------------------------------------------------|
Oh it seems to me that sorry seems to be the hardest word


solo:

e|-3-3-2-0-----------0---0-----0-5-3-2-0---------------2-------2-|
B|---------3-3-1-1---1---1---------------3-1-0-0-----2-------4---|
G|-------------------2---2-------------------------2-------2-----|
D|---------------------------------------------------------------|
A|-----------------0---0---0-----------------------------2-------|
E|---------------------------3-------------3-----2---------------|


e|---------------0---------0---0---------5--5-7-8--10-8----7-5-------------------|
B|---0-0-1-0---0---3-1-0-1-1---1-----7-8----------------8------8-7-8-7-5-3-------|
G|-----------3-------------2---2---------------------------------------------2-3-|
D|-------------------------------------------------------------------------4-----|
A|-------------------------0-0---0-----------------------------------------------|
E|-0-------------------------------3---------------------------------------------|

chorus:

Em B/A Em Esus/C#
e|-----0---2---2------0-----0--------0------0---|
B|-0---0---0---0------0-----0--------0------0---|
G|-0---0---2---2------0-----0--------2------2---|
D|-2-------1-1---1------------------------------|
A|-2-2---2------------2-2---------2--4----4---4-|
E|----------------------------------------------|

Its sad, so sad. Its a sad, sad situation

C B/A Em
e|-0---0---------------2----------2--------0-----------|
B|-1---1---------------0----------0----0---0---2---4---|
G|-0---0---------------2----------2----0---0---2---2---|
D|-------------------------------------2---------2---4-|
A|-3-3---------3-------2--------2----2-2-2---2-4---2---|
E|-----------------------------------------------------|

And its getting more and more absurd

Em B/A Em Esus/C#
e|-----0---2---2------0-----0--------0------0---|
B|-0---0---0---0------0-----0--------0------0---|
G|-0---0---2---2------0-----0--------2------2---|
D|-2-------1-1---1------------------------------|
A|-2-2---2------------2-2---------2--4----4---4-|
E|----------------------------------------------|

Its sad, so sad. Why can't we talk it over

C Am B/A Em
e|-0---0--------------0---0------0-----0--------2-------2----------0----|
B|-1---1--------------1---1------1-----1--------0-------0------0---0----|
G|-0---0--------------0---0------2-----2--------2-------2------0---0----|
D|-------------------------------------------------------------2--------|
A|-3-3-------3----------3---2----0-0---------0--2--2------2----2-2---2--|
E|----------------------------------------------------------------------|

Oh it seems to me, sorry seems to be the hardest word

verse 3:

Em Em7 Am
e|-----0------------------0-------0--------0---------0------------|
B|-0---0------------------0-------3--------1---------1----3-1-0-1-|
G|-0---0------------------0-------0--------2---------2------------|
D|-2--------------------------------------------------------------|
A|-2-2-------------2---------2---------2-----------0----0---------|
E|----------------------------------------------------------------|

What have I got to do to make you love me?

D/C G
e|-2---2------------------2-------2----3------3-------0-----|
B|-1---1------------------1-------1----0------0-------0---4-|
G|-2---2------------------2-------2----0------0-----2-------|
D|------------------------------------------------------2---|
A|-0-0-------------0---------0------0-------------------2---|
E|------------------------------------------3---3---2-------|

What have I got to do to be heard?

Em Em7 Am
e|-----0---------0---------0---------0------------0-----------|
B|-0---0---------0---------3---------1------------1---3-1-0-1-|
G|-0---0---------0---------0---------2------------2-----------|
D|-2----------------------------------------------------------|
A|-2-2---------2----2-----------2---------------0---0---------|
E|------------------------------------------------------------|

What do I do when lightning strikes me?

end:

D7/F# B/A Em Am
e|-2-----------2------2---2---------------0------0---0---|
B|-1-----------1------0---0---0-----------0------1---1---|
G|-2-----------2------2---2---0-----------0------2---2---|
D|----------------------------2--------------------------|
A|--------------------2-2---2-2---------2-----2--0-0---0-|
E|-2---------2-----2-------------------------------------|

What have I got to do? What have I got to do?

D7/F# B/A
e|------2-----2--------2------2-------0-0--0-0--0-0--0--3-2-0---0---0---2---2---------0-|
B|------1-----1--------0------0-------3-3--2-2--1-1--0--------0-1---1---0---0--------0--|
G|------2-----2--------2------2---------------------------------2---2---2---2-------0---|
D|---------------------------------------------------------------------------------2----|
A|---------------------2--2-------2-----------------------------0-0---0-2-2---2---2-----|
E|------2-2---------2------------------------------------------------------------0------|

When sorry seems to be the hardest word? [Sorry seems to be the hardest word]

--------------------------------------------------

i hope you've fun... try to :D

tabbed by Master_Pi
Song info
Sorry Seems To Be The Hardest Word
Elton John
2001
  • Pop
  • Rock
  • Acoustic
Similar songs
29 Palms - Robert Plant
Iris - Goo Goo Dolls
Waters Edge - Seven Mary Three
The Zoo - Scorpions

Hi! Hope you enjoy backing track experience.
If you want to help us in the development of the project, feel free to donate!