Mystery Train - Elvis Presley
00:00 / 00:00
Tabs and lyrics
Tunning: Nashville (E A D G B E)




Mystery Train
-------------
Standard tuning.
E A/E 6x
E||-----------------|-------0----------------||
B||--------------0--|-------0-------2-------*||
G||--------------1--|---------------2--------||
D||-----------------|-------2----------2-----||
A||-----0-h-2-------|-----------------------*||
E||-----------------|--0---------0-----------||
E A E
Train I ride, sixteen coaches long
A E
Train I ride, sixteen coaches long
B7 A E
Well that long black train got my baby and gone
Train train, comin' 'round, 'round the bend
Train train, comin' 'round the bend
Well it took my baby, but it never will again (no, not again)
Train train, comin' down, down the line
Train train, comin' down the line
Well it's bringin' my baby, 'cause she's mine all, all mine
(She's mine, all, all mine)
Tunning: Standard (E A D G B e)
This is the rhythm/lead part for Mystery Train


E
e|---------------------------------------------|
B|-----0--------2----------0-------------------|
G|-----0h1------2----------0h1-------2---------|
D|-----2-----------2-------2-------------2-----|
A|----------2--------------------2-------------|
E|---0-------------------0---------------------|

e|---------------------------------------------|
B|-----0--------2----------0-------------------|
G|-----0h1------2----------0h1-------2---------|
D|-----2-----------2-------2-------------2-----|
A|----------2--------------------2-------------|
E|---0-------------------0---------------------|

e|---------------------------------------------|
B|-----0--------2----------0-------------------|
G|-----0h1------2----------0h1-------2---------|
D|-----2-----------2-------2-------------2-----|
A|----------2--------------------2-------------|
E|---0-------------------0---------------------|

e|---------------------------------------------|
B|-----0--------2----------0-------------------|
G|-----0h1------2----------0h1-------2---------|
D|-----2-----------2-------2-------------2-----|
A|----------2--------------------2-------------|
E|---0-------------------0---------------------|

A7
e|-------------------0-------------------------|
B|-------2----------------------2--------------|
G|-----------0--------------0------------------|
D|-------2------------------------2------------|
A|---0----------0---------0--------------------|
E|---------------------------------------------|

e|-------------------0-------------------------|
B|-------2----------------------2--------------|
G|-----------0--------------0------------------|
D|-------2------------------------2------------|
A|---0----------0---------0--------------------|
E|---------------------------------------------|

E
e|---------------------------------------------|
B|-----0--------2----------0-------------------|
G|-----0h1------2----------0h1-------2---------|
D|-----2-----------2-------2-------------2-----|
A|----------2--------------------2-------------|
E|---0-------------------0---------------------|

B7
e|---------------------------------------------|
B|-----0--------2--------------------0---------|
G|-----0h1------2------------------------------|
D|-----2-----------2-----------------0h1-------|
A|----------2--------------0---1---2---------2-|
E|---0-----------------3-----------------------|

A7
e|-----------------------------------3-----0---|
B|---------0------------------0----------------|
G|---2---------------2-------------------------|
D|------1--------------------------------------|
A|---------2-----2-------2----2----------------|
E|---------------------------------------------|

e|------------0--------------------------------|
B|---3p0---------------------------------------|
G|---------3-----2------2h3p2p0-----2----------|
D|---------------------------------------------|
A|---------------------------------------------|
E|---------------------------------------------|

E
e|---------------------------------------------|
B|-----0--------2----------0-------------------|
G|-----0h1------2----------0h1-------2---------|
D|-----2-----------2-------2-------------2-----|
A|----------2--------------------2-------------|
E|---0-------------------0---------------------|

e|---------------------------------------------|
B|-----0--------2----------0-------------------|
G|-----0h1------2----------0h1-------2---------|
D|-----2-----------2-------2-------------2-----|
A|----------2--------------------2-------------|
E|---0-------------------0---------------------|



************************************

| h Hammer-on
| p Pull-off

************************************
Song info
Mystery Train
Elvis Presley
2001
  • Rock
  • Rock & Roll
Similar songs
Be-bop-a-lula - Gene Vincent
Forever Young - Bob Dylan
Al Capone - The Javalins
Aint That A Shame - Fats Domino

Hi! Hope you enjoy backing track experience.
If you want to help us in the development of the project, feel free to donate!