So Much For The Afterglow - Everclear
00:00 / 00:00
Tabs and lyrics
Tunning: Standard (E A D G B e)
So Much For The Afterglow
By Everclear
Off the CD "So Much For The Afterglow"
Tabbed by Chris Mickols (cmickols@hotmail.com)


Verse:
e|---------------------------------|
B|---------------------------------|
G|---------7-7-7-7---------4-4-4-4-|
D|-7-7-7-7-7-7-7-7-4-4-4-4-4-4-4-4-|
A|-7-7-7-7-5-5-5-5-4-4-4-4-2-2-2-2-|
E|-5-5-5-5---------2-2-2-2---------|

Chorus:
e|-----------------------------------------------------------------|
B|-----------------------------------------------------------------|
G|---------7-7-7-7-9-9-9-9-7-7-7-7-6-6-6-6-7-7-7-7-4-4-4-4-7-7-7-7-|
D|-7-7-7-7-7-7-7-7-9-9-9-9-7-7-7-7-6-6-6-6-7-7-7-7-4-4-4-4-7-7-7-7-|
A|-7-7-7-7-5-5-5-5-7-7-7-7-5-5-5-5-4-4-4-4-5-5-5-5-2-2-2-2-5-5-5-5-|
E|-5-5-5-5---------------------------------------------------------|



If you have any of the leads e-mail them to me:
cmickols@hotmail.com

Check out my other tabs at:
http://members.aol.com/cmickols/
Tunning: Standard (E A D G B e)
Everclear "So much for the Afterglow"

This tab is correct. Any questions feel free to e-mail me.
h=hammer on s=slide b=bend

The beginning where they sing has no guitar.

Verse 1- distorted

E-----------------------------------------|
B------------7-7-7-------------4-4-4------|
G---6-6-6-6--7-7-7----3-3-3-3--4-4-4------|2 more times
D---7-7-7-7--7-7-7-2--4-4-4-4--4-4-4-2----|
A---7-7-7-7--5-5-5-2--4-4-4-4--2-2-2-2----|
E---5-5-5-5--------0--2-2-2-2--------0----|

Pre-chorus- add before the chorus during "yes I think we have a problem..."

E---0---0---0---0-------------------|
B---0---0---0---0---palm muted------|
G---1---1---1---1---7-7-7-7-7-7-7-7-|
D---2---2---2---2---7-7-7-7-7-7-7-7-|
A---2---2---2---2---5-5-5-5-5-5-5-5-|
E---0---0---0---0-------------------|

Chorus is the same as the verse but add an E chord instead of the E5 chord.

Verse 2 is the same as verse 1 except leave out E5 chord all together.

Notes before second chorus at "Guess our honeymoon is over..."

E----------10-----10------------|
B-------------------------------|
G---9h11----11------11---11s0---|
D-------------------------------|
A-------------------------------|
E-------------------------------|

Second Chorus-Play the part of the first chorus also but this is the part guitar 2 plays.

E---5-5-5---10-10-10--s12-12-12--s10--10--10--9-9-9---10-10-10-12---7-7-7s10-10-|
B---5-5-5---10-10-10--s12-12-12--s10--10--10--9-9-9---10-10-10-12---7-7-7s10-10-|
G---2-2-2---7--7--7---s9--9--9---s7----7---7--6-6-6----7--7---7-9---4-4-4s7--7--|
D---2-2-2---7--7--7---s9--9--9---s7----7---7--6-6-6----7--7---7-9---4-4-4s7--7--|
A---0---------------------------------------------------------------------------|
E-------------------------------------------------------------------------------|
Repeat that part, its hard to find the tempo but listen and you'll get it.

Bridge-distorted, palm muted

E-------------------------------------------------------------------------------|
B-------------------------------------------------------------------------------|
G-------------7-7-7-7-------------7-7-7-7---6-6-6-6---7-7-7-7--4-4-4-4--7-7-7-7-|
D---7-7-7-7---7-7-7-7---2-2-2-2---7-7-7-7---6-6-6-6---7-7-7-7--4-4-4-4--7-7-7-7-|
A---7-7-7-7---5-5-5-5---2-2-2-2---5-5-5-5---4-4-4-4---5-5-5-5--2-2-2-2--5-5-5-5-|
E---5-5-5-5-------------0-0-0-0-------------------------------------------------|

E--------------------------------------------------------------------------------|
B--------------------------------------------------------------------------------|
G-------------7-7-7-7-------------7-7-7-7---6-6-6-6---7-7-7-7-----------7-7-7-7--|
D---7-7-7-7---7-7-7-7---2-2-2-2---7-7-7-7---6-6-6-6---7-7-7-7--2-2-2-2--7-7-7-7--|
A---7-7-7-7---5-5-5-5---2-2-2-2---5-5-5-5---4-4-4-4---5-5-5-5--2-2-2-2--5-5-5-5--|
E---5-5-5-5-------------0-0-0-0------------------------------0-0-0-0-------------|

Solo after the "I remember part..."

E-----------------------------------12b-----------------------------------------|
B---7-7-----------10-10-10-10-10-12-12b-14-14-14-14s12-12-10-10-10-10-10s9-9-7--|
G---7-7-9-9h11------------------------------------------------------------------|
D-------------------------------------------------------------------------------|
A-------------------------------------------------------------------------------|
E-------------------------------------------------------------------------------|

E-------------------------------------------------------------------------------|
B---7-7-7-s5-5-5-10-10-10-10-12-12s14-14-14-14s12-12s10-10-10-10s9-9-7-7--------|
G-------------------------------------------------------------------------------|
D-------------------------------------------------------------------------------|
A-------------------------------------------------------------------------------|
E-------------------------------------------------------------------------------|

E-------------------------------------------------------------------------------|
B---7-7-7-5-5s7s5s7s5s7s5s7s5s7s5s7s5s7s5s7s5s7s5s7-----------------------------|
G---------- only strum the bold 5 then just slide with the sound----------------|
D-------------------------------------------------------------------------------|
A-------------------------------------------------------------------------------|
E-------------------------------------------------------------------------------|

After the solo its back to the palm muted chords with some slow strummed chords
These are the chords Art strums during the palm muted part
E-------2---0---2---|
B---2---4---2---3---| repeat that 4 times
G---3---2---2---2---|
D---4---4---2---0---|
A---4---2---0-------|
E---2---------------|

During the "so I guess we need the drama..." he strums an E then D chord.

The last chorus is the same as the others and it repeats and fades.

It's an awesome song so have fun.
Song info
So Much For The Afterglow
Everclear
2001
  • Rock
  • Alternative Rock
  • Grunge
  • Pop Rock
Similar songs
Shes A River - Simple Minds
Ironic - Alanis Morissette
Shes Waiting - Eric Clapton
Ghost - Slash
Radar Love - White Lion

Hi! Hope you enjoy backing track experience.
If you want to help us in the development of the project, feel free to donate!