Decadence Dance - Extreme
00:00 / 00:00
Tabs and lyrics
Tunning: Standard (E A D G B e)
DECADENCE DANCE
Music and Lyrics: Bettencourt, Cherone
From Extremeïs album "II Pornograffitti- A Funked Up Fairy Tale"
Taken from the book, transcription by Ric Molina


TUNE GUITAR DOWN 1/2 STEP (Eb)
Tempo: 134


A.H. 1
e|------------------------|----------------------------------------|
B|------------------------|----------------------------------------|
G|-------4b---(4)----2----|-(2)-------------------------------2----|
D|-------------------2----|-(2)----2----4p-2h-4--5-----2------2----|
A|-------------------0----|-(0)------------------------0------0----|
E|------------------------|----------------------------------------|

e|-----------------------------------|-----------------------------------|
B|-----------------------------------|-----------------------------------|
G|(2)---2-------------4/6---2---2----|-(2)---2-----------------------2---|
D|(2)---2----4p-2h-4--------2---2----|-(2)---2----4p-2h-4--5----2----2---|
A|(0)---0-------------------0---0----|-(0)---0------------------0----0---|
E|-----------------------------------|-----------------------------------|
G.I A.H. 1 A.H. 1/2

e|-----------------------------------|-----------------------------------|
B|-----------------------------------|-----------------------------------|
G|(2)----4b---(4)--2---4b---(4)--2---|-(2)------------------------2------|
D|(2)--------------2---4b---(4)--2---|-(2)---2---4p-2h-4--5---2---2------|
A|(0)--------------0-------------0---|-(0)--------------------0---0------|
E|-----------------------------------|-----------------------------------|
|
|
GUIT. II A.H. 1 |
e|-----------------------------------|-----------------------------5-----|
B|-----------------------------------|-----------------------------5-----|
G|(2)------------------4b---(4)---2--|-(2)-------------------------2-----|
D|(2)-----------------------------2--|-(2)-------------------------2-----|
A|(0)-----------------------------0--|-(0)-------------------------------|
E|-----------------------------------|-----------------------------------|
GUIT.I

e|-----------------------------------|-----------------------------------|
B|-----------------------------------|-----------------------------------|
G|-(2)----------------4/6---2----2---|-(2)-----------------------X---X---|
D|-(2)---2--4p-2h-4---------2----2---|-(2)----2--4p-2h-4--5---2--X---X---|
A|-(0)----------------------0----0---|-(0)--------------------0--X---X---|
E|-----------------------------------|-----------------------------------|
|
|
GUIT.II |
e|-----------------------------------|-----------------------------------|
B|------------------------------3----|-(3)---------------------------3---|
G|------------------------------0----|-(0)---------------------------2---|
D|------------------------------2----|-(2)---------------------------4---|
A|------------------------------0----|-(0)---------------------------5---|
E|-----------------------------------|-----------------------------------|
G.I

e|-----------------------------------|-----------------------------------|
B|-3----X--X--X----3--3--3-----------|-----------------------------------|
G|-2----X--X--X----2--2--2-----2-----|-(2)-------------------------2-----|
D|------X--X--X----4--4--4-----2-----|-(2)---2--4p-2h-4--5----2----2-----|
A|-----------------5--5--5-----0-----|-(0)--------------------0----0-----|
E|-----------------------------------|-----------------------------------|
Letïs go... |
|
G.II(to rhy. slashes) |
e|-----------------------------------|-----------------------------------|
B|----3---3---3---3---3---3---3------|-----------------------------------|
G|----2---2---2---2---2---2---2---2--|-----------------------------------|
D|----4---4---4---4---4---4---4---2--|-----------------------------------|
A|----5---5---5---5---5---5---5---0--|-----------------------------------|
E|-----------------------------------|-----------------------------------|

e|-----------------------------------|-----------------------------------|
B|-----------------------------------|-----------------------------------|
G|(2)---2-------------4/6---2---2----|-(2)--2----------------------2-----|
D|(2)---2----4p-2h-4--------2---2----|-(2)--2----4p-2h-4--5---2----2-----|
A|(0)---0-------------------0---0----|-(0)--0-----------------0----0-----|
E|-----------------------------------|-----------------------------------|

A.H. 1 1/2

e|-----------------------------------|-----------------------------------|
B|-----------------------------------|-----------------------------------|
G|(2)--4b---(4)----2--2--4b---(4)--2-|-(2)-------------------------2-----|
D|(2)--------------2--2--4b---(4)--2-|-(2)---2---4p-2h-4--5----2---2-----|
A|(0)--------------0--0------------0-|-(0)---------------------0---0-----|
E|-----------------------------------|-----------------------------------|

e|-----------------------------------|-----------------------------------|
B|-----------------------------------|-----------------------------------|
G|(2)----------------4/6---2----2----|-(2)-------------------------------|
D|(2)---2---4p-2h-4--------2----2----|-(2)---2---4p-2h-4---5------2------|
A|(0)----------------------0----0----|-(0)------------------------0------|
E|-----------------------------------|-----------------------------------|

e|--------------------2---2---2------|-----------------------------------|
B|--------------------3---3---3------|-----------------------------------|
G|----------0---0-----2---2---2------|--2--------------------------------|
D|----------0---0-----0---0---0------|--2--------------------------------|
A|-(1)h-2---0---0--------------------|--0--------------------------------|
E|-----------------------------------|-----------------------------------|
Tryinï so hard to keep up

e|-----------------------------------|-----------------------------------|
B|-----------------------------------|---------------------3----------5--|
G|-----------------------------------|---2--2------------------(4)/5-----|
D|-----------------------------------|---2--2--------(2)/4---------------|
A|-----------------------------------|---0--0---0--0---------------------|
E|------------------------5/15\5-----|-----------------------------------|

with the Joneses

e|-----------------------------------|-----------------------------------|
B|----------------------7---------5--|-----------------------------------|
G|---2--2------------------(7)\5-----|--2--------------------------------|
D|---2--2--------(5)/7---------------|--2--------------------------------|
A|---0--0---0--0---------------------|--0--------------------------------|
E|-----------------------------------|-----------------------------------|
Running a rat race and won A.H.

e|-----------------------------------|-----------------------------------|
B|-----------------------------------|-----------------------------------|
G|-----------------------------------|-----------0-----------2-----------|
D|-----------------------------------|-----------------------------------|
A|-----------------------------------|----3h--5-----3--0--0--------------|
E|----------------------5/12\5-------|-----------------------------------|
by our noses 1/2

e|-----------------------------------|-----------------------------------|
B|-----------------------------------|-----------------------------------|
G|--5b-------------------------------|-2---------------------------------|
D|-------7p-5-7-5--------------------|-2---------------------------------|
A|-----------------7-6-5--5--5-------|-0---------------------------------|
E|------------------------------8----|-----------------------------------|
Always put one foot in

e|-----------------------------------|-----------------------------------|
B|-----------------------------------|----------------------3--------5---|
G|-----------------------------------|--2--2-----------------------------|
D|-----------------------------------|--2--2-----------------------------|
A|-----------------------------------|--0--0---0--0--(2)/4-----(4)/5-----|
E|--------------------------5/15\5---|-----------------------------------|
front of the other

e|-----------------------------------|-----------------------------------|
B|-----------------------7--------5--|-----------------------------------|
G|--2--2-----------------------------|---2-------------------------------|
D|--2--2---------(5)/7------(7)\5----|---2-------------------------------|
A|--0--0---0--0----------------------|---0-------------------------------|
E|-----------------------------------|-----------------------------------|
and dance to the beat of a de- A.H.

e|-----------------------------------|-----------------------------------|
B|--7~~~~~~~~~~~---------------------|-----------------------------------|
G|--7~~~~~~~~~~~-----X--X------------|--------0------------2-------------|
D|--7~~~~~~~~~~~-----X--X------------|-----------------------------------|
A|-------------------X--X------------|--3h-5-----3---0--0----------------|
E|-------------------------(5)/12\5--|-----------------------------------|
cadent drummer

e|-----------------------------------|-----------------------------------|
B|-----------------------------------|-----------2-------0----2------2---|
G|--5-6------------------------------|-----------2-------0----2------2---|
D|-------7-5-7-5----------5---4---2--|-(2)---2---2-------2----0------4---|
A|---------------7-6-5----5---4---2--|-(2)-------------------------------|
E|------------------------3---2---0--|-(0)-------------------------------|
Just buy a brand new pair

e|-----------------------------------|-----------------------------------|
B|(2)---3--------2-------3--------7--|(7)--7--7--7--7----6--5------4-----|
G|(2)--------------------------------|(7)--------------------------------|
D|(4)---4--------2-------4--------7--|(7)--7--7--7--7----6--5------4-----|
A|-----------------------------------|-----------------------------------|
E|-----------------------------------|-----------------------------------|
of Fred Astaire shoes climb- ing to the top never gon-1/2

e|-----------------------------------|-----------------------------------|
B|(4)------4--------4----------------|-----------------------------------|
G|-----------------------------------|-----------------------------------|
D|(4)-4-------------4----------------|-----------------------------------|
A|-----------------------------------|----------4------5-----6-----------|
E|---------------------2b---(2)---0--|-(0)--0-------0-----0-----0--------|
-na stop itïs the same old song and 1/2

e|-----------------------------------|--------------------------12b------|
B|-----------------------------------|---7----------5-----------13b------|
G|-----------------------------------|---7----------5--------------------|
D|-----------------------------------|---7----------7--------------------|
A|--7--------6-------5-------4-------|---5----------5--------------------|
E|------0--------0-------0-----------|-----------------------------------|
one two three and de- -ca- -dence A.H. 1


[Chorus]

e|(12)-------------------------------|-------------(7)/9----9------------|
B|(13)-------------------------------|-----------------------------------|
G|----------------4b---(4)-----2-----|(2)--2--2----(7)/9----9-------2----|
D|-----------------------------2-----|(2)--2--2---------------------2----|
A|-----------------------------0-----|(0)--0--0---------------------0----|
E|-----------------------------------|-----------------------------------|
Dance Dance Dance

e|-------------(7)/9----9------------|-----------------------------------|
B|-----------------------------------|-----------------------------------|
G|(2)--2--2----(7)/9----9----------7-|(7)---7---7-------5---4---2---2----|
D|(2)--2--2------------------------7-|(7)---7---7-------5---4---2---2----|
A|(0)--0--0------------------------5-|(5)---5---5---0---3---2---0---0----|
E|-----------------------------------|-----------------------------------|
Dance danc- -ing to the de-ca-dent dance let ring..............

e|-------------(7)/9----9------------|--------------0--------------------|
B|-----------------------------------|----------3------------------------|
G|(2)--2--2----(7)/9----9------------|----------2------------------------|
D|(2)--2--2----------------------5---|(5)--5----0----------------2-------|
A|(0)--0--0----------------------5---|(5)--5---------------------2-------|
E|-------------------------------3---|(3)--3---------------------0-------|
Evï - ïry body de-.............

e|-----0-----------------------2-----|(2)--------------------------------|
B|---------------------0h-2----2-----|(2)----------------------------7---|
G|-------------2----2----------2-----|(2)----------------------------7---|
D|(2)----------2---------------4-----|(4)----------------------------7---|
A|(2)----------0---------------4-----|(4)----------------------------5---|
E|(0)--------------------------2-----|(2)--------------------------------|
-ca danc ing danc- -ing to the decadent danc- P.M...........

e|-----------------------------------|-----------------------------------|
B|(7)-------------------9------------|-----------------------------------|
G|(7)-------------------9---------2--|(2)---------------------------2----|
D|(7)--6---7---6---7----9---------2--|(2)----2---4p-2h-4--5----2----2----|
A|(5)--4---5---4---5----7---------0--|(0)----------------------0----0----|
E|-----------------------------------|-----------------------------------|
-ing to the decadent dance Dance

e|-----------------------------------|-----------------------------------|
B|-----------------------------------|-----------------------------------|
G|(2)-----------------4/6---2---2----|(2)----------------------------2---|
D|(2)----2---4--2--4--------2---2----|(2)----2---4--2--4---5-----2---2---|
A|(0)-----------------------0---0----|(0)------------------------0---0---|
E|-----------------------------------|-----------------------------------|
Dance

e|-----------------------------------|-----------------------------------|
B|--3---3-------3----3----3----------|-----------------------------------|
G|--0---0-------2----2----2----------|--2--------------------------------|
D|--0---0-------0----0----0----------|--2--------------------------------|
A|--2---2----------------------------|--0--------------------------------|
E|-----------------------------------|-----------------------------------|
Itïs hard to stop once the mu-

e|-----------------------------------|-----------------------------------|
B|-----------------------------------|---------------------3--------5----|
G|-----------------------------------|--2--2-----------------------------|
D|-----------------------------------|--2--2---------(2)/4----(7)\5------|
A|-----------------------------------|--0--0---0--0----------------------|
E|-----------------------12/15\5-----|-----------------------------------|
-sic gets started


+ + + +
e|-----------------------------------|-----------------------------------|
B|---------------------7--------5----|-----------------------------------|
G|---2--2----------------------------|--2--2-----------------------------|
D|---2--2--------(5)/7----(7)\5------|--2--2----------------------------5|
A|---0--0---0--0---------------------|--0--0-----------------5p0h3h5p0h3-|
E|-----------------------------------|----------X--0h3p5p0h3-------------|
Till the soles of your feet harden up



+ + + + + + + + A.H.
e|----------------------------------5p0h3h5p0h3h5-|----------------------|
B|----------------------5p0h3p5p0h3---------------|----------------------|
G|----------5p0h2h5p0h2---------------------------|------0-----------2---|
D|0h2h5p0h2---------------------------------------|----------------------|
A|------------------------------------------------|-3h-5----3--0--0------|
E|------------------------------------------------|----------------------|
like your heart did

e|-----------------------------------|-----------------------------------|
B|-----------------------------------|-----------------------------------|
G|--5--6-----------------------------|-----------------------------------|
D|--------7-5-7-5--------------------|------5----5----4----5----5----4---|
A|-----------------7-6-5---5--5------|-----------------------------------|
E|-------------------------------8---|-----------------------------------|
Step--pinï in line with the

1/2
e|-----------------------------------|-----------------------------------|
B|-----------------------------------|---------------------3--------5----|
G|-----------------------------------|--2--2-----------------------------|
D|-------5----5----4----5------------|--2--2---------(2)/4----(4)/5------|
A|--------------------------3b-------|--0--0----0--0---------------------|
E|-----------------------------------|-----------------------------------|
sign of the timer



1 1 1 1 1
e|-----------------------------------|-----------------------------------|
B|-----------------------------------|-----------------------------------|
G|--7b---(7b)--(7b)--(7b)--(7b)--(7b)|--2--------------------------------|
D|-----------------------------------|--2--------------------------------|
A|-----------------------------------|--0--------------------------------|
E|-----------------------------------|-----------------------------------|
Seduced by the tune of the de- *not a slide, pick the notes to 17 A.H.

e|-----------------------------------|-----------------------------------|
B|-----------------------------------|-----------------------------------|
G|-----------------------------------|---------0-----------2-------------|
D|-----------------------------------|-----------------------------------|
A|-0-////////////////////////17------|---3h-5-----3---0--0---------------|
E|-----------------------------------|-----------------------------------|
-cadent dancer Whoo!

e|-----------------------------------|-----------------------------------|
B|-----------------------------------|-----------------------------------|
G|--5--6-----------------------------|--------0------------2-------------|
D|-------7-5-7-5---------------------|-----------------------------------|
A|---------------7--6---5-----3------|---3h-5-----3---0--0---------------|
E|-----------------------------------|-----------------------------------|
the decadent dancer




e|-----------------------------------|-----------------------------------|
B|-----------------------------------|---------2------0------2------2----|
G|--5--6-----------------------------|---------2------0------2------2----|
D|-------7-5-7-5-----------------2---|-(2)--2--2------2------0------4----|
A|---------------7--6--5---5--4--2---|-(2)-------------------------------|
E|-------------------------3--2--0---|-(0)-------------------------------|
Just buy a brand new pair

e|-----------------------------------|-----------------------------------|
B|(2)---3--------2-------3--------7--|(7)--7--7--7--7----6--5------4-----|
G|(2)--------------------------------|(7)--------------------------------|
D|(4)---4--------2-------4--------7--|(7)--7--7--7--7----6--5------4-----|
A|-----------------------------------|-----------------------------------|
E|-----------------------------------|-----------------------------------|
of Fred Astaire shoes climb- ing to the top never gon- 1/2

e|-----------------------------------|-----------------------------------|
B|(4)------4--------4----------------|-----------------------------------|
G|-----------------------------------|-----------------------------------|
D|(4)-4-------------4----------------|-----------------------------------|
A|-----------------------------------|----------4------5-----6-----------|
E|---------------------2b---(2)---0--|-(0)--0-------0-----0-----0--------|
-na stop itïs the same old song and 1/2

e|-----------------------------------|--------------------------12b------|
B|-----------------------------------|---7----------5-----------13b------|
G|-----------------------------------|---7----------5--------------------|
D|-----------------------------------|---7----------7--------------------|
A|--7--------6-------5-------4-------|---5----------5--------------------|
E|------0--------0-------0-----------|-----------------------------------|
one two three and de- -ca- -dence A.H. 1


[Chorus 2]

e|(12)-------------------------------|-------------(7)/9----9------------|
B|(13)-------------------------------|-----------------------------------|
G|----------------4b---(4)-----2-----|(2)--2--2----(7)/9----9-------2----|
D|-----------------------------2-----|(2)--2--2---------------------2----|
A|-----------------------------0-----|(0)--0--0---------------------0----|
E|-----------------------------------|-----------------------------------|
Dance Dance Dance

e|-------------(7)/9----9------------|-----------------------------------|
B|-----------------------------------|-----------------------------------|
G|(2)--2--2----(7)/9----9----------7-|(7)---7---7-------5---4---2---2----|
D|(2)--2--2------------------------7-|(7)---7---7-------5---4---2---2----|
A|(0)--0--0------------------------5-|(5)---5---5---0---3---2---0---0----|
E|-----------------------------------|-----------------------------------|
Dance danc- -ing to the de-ca-dent dance let ring..............

e|-------------(7)/9----9------------|--------------0--------------------|
B|-----------------------------------|----------3------------------------|
G|(2)--2--2----(7)/9----9------------|----------2------------------------|
D|(2)--2--2----------------------5---|(5)--5----0----------------2-------|
A|(0)--0--0----------------------5---|(5)--5---------------------2-------|
E|-------------------------------3---|(3)--3---------------------0-------|
Evï - ïry body de-.............

e|-----0-----------------------2-----|(2)--------------4/5\4--2----------|
B|---------------------0h-2----2-----|(2)------2---------------------7---|
G|-------------2----2----------2-----|(2)---2-----2------------------7---|
D|(2)----------2---------------4-----|(4)----------------------------7---|
A|(2)----------0---------------4-----|(4)----------------------------5---|
E|(0)--------------------------2-----|(2)--------------------------------|
-ca danc ing danc- -ing to the decadent danc- P.M...........

e|-----------------------------------|-----------------------------------|
B|(7)-------------------9------------|-----------------------------------|
G|(7)-------------------9---------2--|(2)---------------------------2----|
D|(7)--6---7---6---7----9---------2--|(2)----2---4p-2h-4--5----2----2----|
A|(5)--4---5---4---5----7---------0--|(0)----------------------0----0----|
E|-----------------------------------|-----------------------------------|
-ing to the decadent dance Dance

e|-----------------------------------|-----------------------------------|
B|-----------------------------------|-----------------------------------|
G|(2)-----------------4/6----2---2---|(2)--------------------------X-----|
D|(2)-----2---4-2-4----------2---2---|(2)----2---4-2-4--5----2-----X-----|
A|(0)------------------------0---0---|(0)--------------------0-----X-----|
E|-----------------------------------|-----------------------------------|
Dance

e|------5-----7-----8--/9---7--5-----|-----------------------------------|
B|-----------------------------------|-----------------------------------|
G|--/6----6/7---7/8----/9---7--5--2--|(2)--------------------------2-----|
D|--------------------------------2--|(2)---2---4p-2h-4--5----2----2-----|
A|--------------------------------0--|(0)---------------------0----0-----|
E|-----------------------------------|-----------------------------------|
Dance Dance

e|-----------------------------------|-----------------------------------|
B|-----------------------------------|-----------------------------------|
G|(2)-----------------4/6---2---2----|(2)---------------------------2----|
D|(2)---2---4p-2h-4---------2---2----|(2)----2--4p-2h-4---5----2----2----|
A|(0)-----------------------0---0----|(0)----------------------0----0----|
E|-----------------------------------|-----------------------------------|
Dance***SOLO*** + + + A.H.

e|------------------------14p-10h-12--19p-14h-17-|-----------------------|
B|-------------14p-10h-12------------------------|-----------------------|
G|-X/13p-9h-11-----------------------------------|--------0-----------2--|
D|-----------------------------------------------|-----------------------|
A|-----------------------------------------------|--3h-5-----3--0--0-----|
E|-----------------------------------------------|-----------------------|


A.H.
e|-----------------------------------|-----------------------------------|
B|-----------------------------------|-----------------------------------|
G|---5--6----------------------------|---------0--------------2----------|
D|---------7-5-7-5-------------------|-----------------------------------|
A|-----------------7-6-5--5--5-3--3--|--3h--5------3---0--0--------------|
E|-----------------------------------|-----------------------------------|
A.H.

e|-----------------------------------|-----------------------------------|
B|-----------------------------------|-----------------------------------|
G|---5--6---------------7---X---5----|---------------------4-------------|
D|---------7-5-7--------7---X---5----|---------7-------------------------|
A|----------------------5---X---3----|--5h--7-----5----------------------|
E|-----------------------------------|----------------7------------------|

A.H.
e|-----------------------------------|-----------------------------------|
B|-----------------------------------|-----------------------------------|
G|---7--8----------------------------|---------------------4-------------|
D|--------9-7-9-7--------------------|---------7-------------------------|
A|----------------9--8--7--7--7-5--5-|--5h--7-----5----------------------|
E|-----------------------------------|----------------7------------------|

AH.1/2.................. P.M.....
e|-----------------------------------|-----------------------------------|
B|-----------------------------------|-----------------------------------|
G|--7H-8-----9b---(9)--7-------------|--------------------------9--------|
D|-------9-7--------------9--8--7----|--------------7--9--11-------------|
A|--------------------------------10-|--7----7-9-11----------------------|
E|-----------------------------------|-----------------------------------|

A.H. P.M............ A.H....................1..................
e|--------------------------------|-------------------------------------------|
B|------------------------------9-|-9-10p-9----9------X------------------9-10-|
G|-8-------9-------------8-9-11---|---------11---11----11b-(11)-9---9-11------|
D|------------9-----9-11----------|-------------------------------11----------|
A|--------------------------------|-------------------------------------------|
E|--------------------------------|-------------------------------------------|

A.H.
e|-----------------------------------|-----------------------11--14--17--|
B|---------11--------------12--------|----13---------10h-13--------------|
G|-----------------------------------|-----------------------------------|
D|-----------------------------------|-----------------------------------|
A|-----------------------------------|-----------------------------------|
E|-----------------------------------|-----------------------------------|
w/bar 2 1/2 (2 and a half) A.H.

e|-(17)---------------17-\-----------|---17---------16---------12--------|
B|-----------------------------------|-----------------------------------|
G|-----------------------------------|-----------------------------------|
D|-----------------------------------|-----------------------------------|
A|-----------------------------------|-----------------------------------|
E|-----------------------------------|-----------------------------------|

1
e|---------------------------------------|-----------14--------14b-------|
B|-12--12------12-(12)h-14--12--12h14p12-|-11-------------11-------------|
G|-13--13------13------------------------|-------------------------------|
D|----------14---------------------------|-------------------------------|
A|---------------------------------------|-------------------------------|
E|---------------------------------------|-------------------------------|

P.M.........................1......
e|--(14)----19p-16--14\6/14---14--16-|-17----16--17-----16--17--19b------|
B|-----------------------------------|-----------------------------------|
G|-----------------------------------|-----------------------------------|
D|-----------------------------------|-----------------------------------|
A|-----------------------------------|-----------------------------------|
E|-----------------------------------|-----------------------------------|

P.M........................................... 1 1+1/2
e|-(19)--19--17--16--17-21p--19p17p16--17--16-------|--------------------|
B|--------------------------------------------19-17-|-19b---19b-----15---|
G|--------------------------------------------------|--------------------|
D|--------------------------------------------------|--------------------|
A|--------------------------------------------------|--------------------|
E|--------------------------------------------------|--------------------|

A.H. 1
e|-----------------------------------|-----------------------------------|
B|-(17)------------------------------|-(17)------------------------------|
G|-----------------------------------|---------------4b---(4)------2-----|
D|-----------------------------------|-----------------------------2-----|
A|-----------------------------------|-----------------------------0-----|
E|-----------------------------------|-----------------------------------|
*Improvise over sustained note using
feedback,wh.bar,glissandos and pick noises.

e|-----------------------------------|-----------------------------------|
B|-----------------------------------|-----------------------------------|
G|(2)---2------------------------2---|-(2)--2-----------4/6----2----2----|
D|(2)---2----4p-2h-4----5---2----2---|-(2)--2---4p-2h-4--------2----2----|
A|(0)---0-------------------0----0---|-(0)--0------------------0----0----|
E|-----------------------------------|-----------------------------------|

e|-----------------------------------|-----------------------------------|
B|-----------------------------------|--14----12---10---8--7--5--3-----2-|
G|(2)--2------------------2----------|---------------------------------2-|
D|(2)--2---4p-2h-4---5----2------2/--|-(14)-14---12---11--9--7--5--4---2-|
A|(0)--0------------------0----------|---------------------------------0-|
E|-----------------------------------|-----------------------------------|

e|-----------------------------------|-----------------------------------|
B|(2)--2-----------------------------|-----------------------------------|
G|(2)--2-------------------2---2-----|(2)---2-------------4/6----2-------|
D|(2)--2----4p-2h-4---5----2---2-----|(2)---2-----4p-2h-4--------2-------|
A|(0)--0-------------------0---0-----|(0)---0--------------------0-------|
E|-----------------------------------|-----------------------------------|
*finger slide

e|-----------------------------------|-----------------------------------|
B|-----------------------------------|-----------------------------------|
G|---0--------------------0/16-------|--16\2---------------------2-------|
D|---0-------------------------------|---------------------------2-------|
A|---2-------------------------------|---------------------------0-------|
E|---3-------------------------------|----------3------------------------|
go go go go go go go go dance

e|----------(7)/9------9-------------|-----------(7)/9------9------------|
B|-----------------------------------|-----------------------------------|
G|(2)--2----(7)/9------9-----2-------|(2)---2----(7)/9------9------7-----|
D|(2)--2---------------------2-------|(2)---2----------------------7-----|
A|(0)--0---------------------0-------|(0)---0----------------------5-----|
E|-----------------------------------|-----------------------------------|
Dance Dance Dance Danc-

e|-----------------------------------|----------(7)/9-----9--------------|
B|-----------------------------------|-----------------------------------|
G|(7)---7----------5---4---2---2-----|(2)--2----(7)/9-----9--------------|
D|(7)---7----------5---4---2---2-----|(2)--2-----------------------5-----|
A|(5)---5------0---3---2---0---0-----|(0)--0-----------------------5-----|
E|-----------------------------------|-----------------------------3-----|
-ing to the de ca dent dance Ev-


P.M...
e|--------------------0--------------|-----0-------------------------2---|
B|------------3----------------------|-----0-------------------------2---|
G|------------2----------------------|------------2-----2-----X--X---2---|
D|(5)---5-----0-----------------2----|(2)---------2-----2-----X--X---4---|
A|(5)---5-----------------------2----|(2)---------0-----0-----X--X---4---|
E|(3)---3-----------------------0----|(0)----------------------------2---|

-ïry body de- -ca dancing danc-
e|(2)-------------------4h-5p-4------|-----------------------------------|
B|(2)----------2-----------------7---|(7)------------------------9-------|
G|(2)-----2--------2-------------7---|(7)------------------------9----2--|
D|(4)----------------------------7---|(7)----6----7----6----7----9----2--|
A|(4)----------------------------5---|(5)----4----5----4----5----7----0--|
E|(2)--------------------------------|-----------------------------------|
-ing to the decadent danc- -ing to the de-cadent dance

e|----------(7)/9------9-------------|-----------(7)/9------9------------|
B|-----------------------------------|-----------------------------------|
G|(2)--2----(7)/9------9-----2-------|(2)---2----(7)/9------9------7-----|
D|(2)--2---------------------2-------|(2)---2----------------------7-----|
A|(0)--0---------------------0-------|(0)---0----------------------5-----|
E|-----------------------------------|-----------------------------------|
Dance Dance Dance Danc-

e|-----------------------------------|----------(7)/9-----9--------------|
B|-----------------------------------|-----------------------------------|
G|(7)---7----------5---4---2---2-----|(2)--2----(7)/9-----9--------------|
D|(7)---7----------5---4---2---2-----|(2)--2-----------------------5-----|
A|(5)---5------0---3---2---0---0-----|(0)--0-----------------------5-----|
E|-----------------------------------|-----------------------------3-----|
-ing to the de ca dent dance Ev- 1 1 P.M...

e|--------------------0--------------|------0----------------------------|
B|------------3----------------------|------0----------------------------|
G|------------2----------------------|------------2---2---X--X---4b--(4b)|
D|(5)---5-----0-----------------2----|(2)---------2---2---X--X-----------|
A|(5)---5-----------------------2----|(2)---------0---0---X--X-----------|
E|(3)---3-----------------------0----|(0)--------------------------------|
-ïry body de- ca dancing danc- 1 1 1 1 1

e|-----------------------------------|-----------------------------9-----|
B|-------------------------------7---|--7--------------------9-----------|
G|-(4b)-(4b)-(4b)-(4b)-(4b)------7---|--7--------------------9-----9-----|
D|-------------------------------7---|--7---6---7---6---7----9-----------|
A|-------------------------------5---|--5---4---5---4---5----7-----------|
E|-------------------------12\X------|-----------------------------------|
-ing to the decadent danc- in to the de- cadent dance

e|(9)---10--11--12------11--10--9----|(9)---10--11--12------11--10/14----|
B|-----------------------------------|-----------------------------------|
G|(9)---10--11--12------11--10--9----|(9)---10--11--12------11--10/14----|
D|-----------------------------------|-----------------------------------|
A|-----------------------------------|-----------------------------------|
E|-----------------------------------|-----------------------------------|

e|(14)---14--14--14--12--11--10--9---|(9)---10--11--12-----11--10--7-----|
B|-----------------------------------|-----------------------------------|
G|(14)---14--14--14--12--11--10--9---|(9)---10--11--12-----11--10--7-----|
D|-----------------------------------|-----------------------------------|
A|-----------------------------------|-----------------------------------|
E|-----------------------------------|-----------------------------------|

let ring.................................... 1
e|(7)---7------------14--------------|-----12---------9------------------|
B|-----------------------------------|-------------------------12b-------|
G|(7)---7-----/14-----------14---13--|(13)----13--9-------9--------------|
D|----------/------------------------|-----------------------------------|
A|-----------------------------------|-----------------------------------|
E|-----------------------------------|-----------------------------------|
1

e|-----9-12-9--------------------------------------------|
B|(12)--------13p-12-10----10-12b-(12)-10-12p-10----10---|
G|----------------------11-----------------------11------|
D|-------------------------------------------------------|
A|-------------------------------------------------------|
E|-------------------------------------------------------|
1

e|-----------------------------------------------9-------|
B|-12b-(12)p-10------10---------10-----------------------|
G|--------------11-9----11-9-------------9-------9-------|
D|---------------------------11----9-11----11-9----------|
A|-------------------------------------------------------|
E|-------------------------------------------------------|

e|(9)---10--11--12------11--10--9----|(9)---10--11--12------11--10/14----|
B|-----------------------------------|-----------------------------------|
G|(9)---10--11--12------11--10--9----|(9)---10--11--12------11--10/14----|
D|-----------------------------------|-----------------------------------|
A|-----------------------------------|-----------------------------------|
E|-----------------------------------|-----------------------------------|

e|(14)---14--14--14--12--11--10--9---|(9)---10--11--12-----11--10--7-----|
B|-----------------------------------|-----------------------------------|
G|(14)---14--14--14--12--11--10--9---|(9)---10--11--12-----11--10--7-----|
D|-----------------------------------|-----------------------------------|
A|-----------------------------------|-----------------------------------|
E|-----------------------------------|-----------------------------------|

let ring............
e|(7)---7------------14--------------|-----12------------9---------------|
B|-----------------------------------|-----------------------------------|
G|(7)---7-----/14-----------14---13--|--13-----13--9--------9------------|
D|----------/------------------------|-----------------------------------|
A|-----------------------------------|-----------------------------------|
E|-----------------------------------|-----------------------------------|
1

e|-17b--(17)p-14--------------------------------------|------------------|
B|---------------17p-14-------------------------------|------------------|
G|----------------------17-16-14----16-14-------------|------------------|
D|-------------------------------14-------16-14-------|------------------|
A|----------------------------------------------16-14-|------------------|
E|----------------------------------------------------|------------------|
Dancin to the decadent
dance.



************************************

| (n) Ghost note
| b Bend
| h Hammer-on
| p Pull-off
| / Slide up
| \ Slide down
| ~ Vibrato

************************************
Song info
Decadence Dance
Extreme
2001
  • Rock
  • Hard Rock
Alternative tracks
Similar songs
Trouble - Whitesnake
Cum On Feel The Noize - Quiet Riot
Rat Salad - Black Sabbath
Problem Child - AC/DC

Hi! Hope you enjoy backing track experience.
If you want to help us in the development of the project, feel free to donate!