Ooh La La - Faces
00:00 / 00:00
Tabs and lyrics
Tunning: Standard (E A D G B e)
Ooh La La (R.Wood/R.Lane)
Tabbed by Danny Laycock


[Intro/outro]

D Em7 G
e|--------------------------------|
B|--------------------------------|
G|--2-----------------------------|
D|----5-4-2-0h2-4--5-4-2----------|
A|-----------------------5-0h2-5--|
E|--------------------------------|

Simple Melody Line:
D Em7 G
e|----------------------------------|
B|----------------------------------|
G|--2-2-2-4-2---------0-0-0---------|
D|------------4-0-2-2-------4-2-0---|
A|----------------------------------|
E|----------------------------------|

Chordal Version:
D Em7 G
e|-2-2-2-2-2-2-2-------0-0---3-3-3-3----------|
B|-3-3-3-3-3-3-3-------3-3---3-3-3-3----------|
G|-2-2-2-4-2-0-2-------0-0---0-0-0-0----------|
D|-0-0-0-0-0-0-0--4-0--2-2---0-0-0-0--4-2-0---|
A|---------------------2-2---2-2-2-2----------|
E|---------------------------3-3-3-3----------|


[Verse 1]
D Em7
Poor old Granddad I laughed at all his words
D Em7
I thought he was a bitter man He spoke of women's ways
D Em7
They'll trap you, then they use you Be-fore you even know
D Em7
For love is blind and you're far too kind Don't ever let it show


[Chorus]
D Em7 G
I wish that I knew all I know now When I was younger
D Em7 G
I wish that I knew all I know now When I was stronger.


[Main Melody] x2


[Verse 2]
D Em7
The Can Can's such a pretty show They'll steal your heart away
D Em7
But backstage, back on earth again The dressing rooms are great
D Em7
They come on strong and it ain't too long Before they make you feel a man
D Em7
But love is blind and you soon will find You're just a boy again


[Chorus]
Play around with D chord during 'solo'
Main melody x2


[Verse 3]
D Em7
When you want her lips, you get a cheek Makes you wonder where you are
D Em7
If you want some more and she's fast asleep Leaves you twinkling with the stars.
D Em7
Poor young grandson, there's nothing I can say
D Em7
You'll have to learn, just like me And that's the hardest way


[Chorus]
Main melody x2
Start ooh la la-ing
Main Melody x4

Play intro/outro
Tunning: Standard (E A D G B e)
Ohh La La
The Faces

Guitar 1 - Capo 7, standard tuning
Intro & Verse Chorus
D Em7 D Em7 G
b|--3------3----| |--3-------3----0--|
Gb|--0------1----| |--0-------1----1--|
D|--0------0----| |--0-------0----0--|
A|--0------2----| |--0-------2----2--|
E|--2------0----| |--2-------0----3--|
B|--3-----------| |--3---------------|


Guitar 2 - NO Capo, standard tuning
D Em7 |repeats w variationss
e|-2--2-2------------0--0 0-------------------|2-|
B|-3--3-3------------3--3-3-------------------|3-|
G|-2--2-2--2-4-2-----0--0-0-0-0-0-------------|2-|
D|-0------------4-0-2-------------4--2-0-----0|--|
A|---------------------------------------0h2--|--|
E|--------------------------------------------|--|
^ ^ ^ ^

watch and learn timing from the master, Privetricker:
https://www.youtube.com/watch?v=G1X5PzfLKc0

also, i thought The ending of Rushmore was the most enjoyable way to hear this,
but the enthusiastic fan who joins rod stewart onstage to hold the lyric up,
steals the show : https://www.youtube.com/watch?v=yo2IhkzVCRs
(Rod Stewart plays in a different key, so above does not apply)
Song info
Ooh La La
Faces
2001
  • Rock
  • Classic Rock
Similar songs
Lets Spend The Night Together - The Rolling Stones
Bad Bad Boy - Nazareth
I Love Rock And Roll - Joan Jett and The Blackhearts
Uncle Salty - Aerosmith
The End - The Doors

Hi! Hope you enjoy backing track experience.
If you want to help us in the development of the project, feel free to donate!