Digging The Grave - Faith No More
00:00 / 00:00
Tabs and lyrics
Tunning: Standard (E A D G B e)
Group: Faith No More
Song : Digging The Grave
Album: King For A Day, Fool For A Lifetime

Transcribed by: Nuno (piece_of_mind@portugalmail.pt)

Symbols:
pm = Palm Mute
/ = Slide Up
\ = Slide Down
^ = String Bend

VERSE:

w/heavy dist.
E |-----------------|-----------------|-----------------|-----------------|
B |-----------------|-----------------|-----------------|-----------------|
G |-----------------|---------------5-/-7---------------|---------------3-/
D |-----------------|---------------5-/-7---------------|---------------3-/
A |-3-3-3-3-3-3-3-3-|---------------3-/-5-5-5-5-5-5-5-5-|---------------1-/
E |-----------------|-4-4-4-4-4-4-4---|-----------------|-6-6-6-6-6-6-6---|
pm----------------------------- pm---------------------------


E |-----------------|-----------------|-----------------|-----------------|
B |-----------------|-----------------|-----------------|-----------------|
G /-5---------------|---------------5-/-7---------------|-----------------|
D /-5---------------|---------------5-/-7---------------|-----------------|
A /-3-3-3-3-3-3-3-3-|---------------3-/-5-5-5-5-5-5-5-5-|-----------------|
E |-----------------|-4-4-4-4-4-4-4---|-----------------|-6-6-6-6-6-6-6-6-|
pm--------------------------- pm-------------------

REPEAT LAST 4 BARS 2X
E |-----------------|-----------------|-----------------|-----------------|
B |-----------------|-----------------|-----------------|-----------------|
G |---5----5------5-|---5----5------5-|---7-----7-----7-|---7-----7-----7-|
D |-----5----5------|-----5----5------|-----7-----7-----|-----7-----7-----|
A |-3-----3-----3---|-----------------|-5-----5-----5---|-----------------|
E |-----------------|-4-----4-----4---|-----------------|-6-----6-----6---|
let ring



CHORUS:

E |-----------------|-----------------|-----------------|-----------------|
B |-----------------|-----------------|-----------------|-----------------|
G |-9-9-9-----9-----|-9-9-9-----9-----|-9-9-9-----9-----|-9-9-9-----9-----|
D |-9-9---9-----9---|-1010--10----10--|-9-9---9-----9---|-1010--10--------|
A |-7-7-------------|-1010------------|-7-7-------------|-1010------------|
E |-7-7-------------|-8-8-------------|-7-7-------------|-8-8---------12\7|
let ring

E |-----------------|-----------------|-----------------|-----------------|
B |-----------------|-----------------|-----------------|-----------------|
G |-----------7-7-7-|-----------------|-----------7-7-7-|-----------------|
D |-9-9\7/9---7-7-7-|-9-9\7/9---101010|-9-9\7/9---7-7-7-|-9-9\7/9---101010|
A |-9-9\7/9---5-5-5-|-9-9\7/9---101010|-9-9\7/9---5-5-5-|-9-9\7/9---101010|
E |-7-7\5/7---------|-7-7\5/7---8-8-8-|-7-7\5/7---------|-7-7\5/7---8-8-8-|

REPEAT CHORUS 2X



INTERLUDE:

4 BARS DRUM ONLY

REPEAT BAR 4X
E |-0-0-0-0-0-0-0-0-|
B |-0-0-0-0-0-0-0-0-|
G |-9-9-9-9-9-9-9-9-|
D |-9-9-9-9-9-9-9-9-|
A |-7-7-7-7-7-7-7-7-|
E |-----------------|


E |-----------------|-----------------|-----------------|-----------------|
B |-----------------|-----------------|-----------------|-----------------|
G |-----9-----------|-----9-----------|------9----------|-----9-----------|
D |---9-------------|---9-------------|----9------------|---7-------------|
A |-7---------------|-9---------------|-10--------------|-5---------------|
E |-----------------|-----------------|-----------------|-----------------|
let ring


REPEAT BAR 4X
E |-0-0-0-0-0-0-0-0-|
B |-0-0-0-0-0-0-0-0-|
G |-9-9-9-9-9-9-9-9-|
D |-1010101010101010|
A |-1010101010101010|
E |-8---------------|


E |-----------------|-----------------|-----------------|-----------------|
B |-----------------|-----------------|-----------------|-----------------|
G |/4^--4^--4^--4^--|-4^--4^--4^--4^--|-4^--4^--4^--4^--|-4^--4^--4^--4^--|
D |-----------------|-----------------|-----------------|-----------------|
A |-----------------|-----------------|-----------------|-----------------|
E |-----------------|-----------------|-----------------|-----------------|
bend each note half a step up

E |-----------------|-----------------|-----------------|-----------------|
B |-----------------|-----------------|-----------------|-----------------|
G |-----------------|-----------------|-----------------|-----------------|
D |-2---2---9---9\--|---2-2---9---9\--|---2-2---9---9\--|---2-2---9---9\--|
A |-2---2---7---7\--|-2-2-2---7---7\--|-2-2-2---7---7\--|-2-2-2---7---7\--|
E |-0---0-----------|-0-0-0-----------|-0-0-0-----------|-0-0-0-----------|
pm pm pm pm pm pm

E |-----------------|-----------------|-----------------|-----------------|
B |-----------------|-----------------|-----------------|-----------------|
G |-----------------|-----------------|-----------------|-----------------|
D |---2-2---9---9\--|---2-2---9---9\--|---2-2---9---9\--|---2-2---9---9\--|
A |-2-2-2---7---7\--|-2-2-2---7---7\--|-2-2-2---7---7\--|-2-2-2---7---7\--|
E |-0-0-0-----------|-0-0-0-----------|-0-0-0-----------|-0-0-0-----------|
pm pm pm pm pm pm pm pm



SONG STRUCTURE:

VERSE/CHORUS/VERSE/CHORUS/INTERLUDE/CHORUS/VERSE



SONG TEXT:

It would be wrong to ask you why
Because I know what goes on inside
Is only half of what comes out
Isn't that what it's about?
To remind us we're alive
To remind us we're not blind
In that big, black hole
Comfortable
Digging the grave, I got it made
Let something in, or throw something out?
You left the door open wide
I know you have a reason why
That knot is better left untied
I just went and undid mine
It takes some time
And the shadows so big
It takes the sun out of the day
And the feeling goes away
If you close the door
Comfortable
Song info
Digging The Grave
Faith No More
2001
  • Rock
  • Alternative Rock
  • Hard Rock
Similar songs
Lyin Eyes - Europe
These Days - Bon Jovi
A Warriors Call - Volbeat
Dream On - Aerosmith

Hi! Hope you enjoy backing track experience.
If you want to help us in the development of the project, feel free to donate!