Letters To You - Finch
00:00 / 00:00
Tabs and lyrics
Tunning: Standard (E A D G B e)
-------------------------------------------------------------------------------
Finch - Letters To You
-------------------------------------------------------------------------------

Artist: Finch
Title: Letters To You
Album: uknow
Transcribed by:^®§©^ Roberto Solis
Email: RsC_62910213@hotmail.com
Tuning: Drop D

Intro *no estoy seguro de esta parte*
e|-------------------|
B|-------------------|
G|-66666666666666666-|
D|-66666666666666666-|
A|-44444444444444444-|
D|-------------------|
*********************************************
Verso
e|-------------------------------------|x2
B|-------------------------------------|
G|-66666666----------------------------|
D|-4444444433333333/44444444/666666666-|
A|-4444444433333333/44444444/666666666-|
D|---------33333333/44444444/666666666-|

>Verso 2nd Guitar RiffINTROVERSOChorus x4Interlude-|
D|-6X-6X-6X-6X--6666666666666666666666666666->-|
A|-4X-4X-4X-4X--4444444444444444444444444444->-|
D|---------------------------------------------|

>Interlude >2nd Guitar Riff>>>>>>>>>>>>> e|--------------------------------------------------------------------------------|
>>>>>>>>>>>>>> B|--------------------------------------------------------------------------------|
>>>>>>>>>>>>>> G|-6-5-6-8-6-5--6-5-6-8-6-5--6-5-6-8-6-666666/10-10-10-10-10-10/11-11-11-11-11-11-|
>>>>>>>>>>>>>> D|-6-6-6-6-6-6--6-6-6-6-6-6--6-6-6-6-6-666666/10-10-10-10-10-10/11-11-11-11-11-11-|
>>>>>>>>>>>>>> A|--------------------------------------------------------------------------------|
>>>>>>>>>>>>>> D|--------------------------------------------------------------------------------|
***********************************************************************************

Chorus -Clean-
e|------------------------------------|x1
B|------------------------------------|
G|--------------------666666----------|
D|-888888888/44444444-666666-33333333-|
A|-888888888/44444444-444444-33333333-|
D|-888888888/44444444--------33333333-|


Chorus (x5)+++
e|-----------------------------------+++-----------------------------------|
B|-----------------------------------+++-----------------------------------|
G|--------------------666666---------+++------------------666666-----------|
D|-888888888/44444444-666666-33333333+/+88888888/44444444-666666-33333333--|
A|-888888888/44444444-444444-33333333+/+88888888/44444444-444444-33333333--|
D|-888888888/44444444--------33333333+/+88888888/44444444--------33333333--|
+++

*************************************************************
END >>>>>Intro
e|-------------------|
B|-------------------|
G|-66666666666666666-|
D|-66666666666666666-|
A|-44444444444444444-|
D|-------------------|

END >>>>>>2nd Guitar ¡strum the chords! me podras encontrar en
ICQ: 62910213 O MANDAME un e-mail a: RsC_62910213@HOTMAIL.COM
Tunning: Standard (E A D G B e)
[Intro]
(Gtr 1) (Dist)
eb|-0-0-0-0-0-0-0-0-0-0-0-0-0-0-0-------------------------------------------------|
Bb|-3-3-3-3-3-3-3-3-3-3-3-3-3-3-3-------------------------------------------------|
Gb|-2-2-2-2-2-2-2-2-2-2-2-2-2-2-2-------------------------------------------------|
Db|-------------------------------------------------------------------------------|
Ab|-------------------------------------------------------------------------------|
Db|-------------------------------------------------------------------------------|

[Verse]
(Gtr 1)
eb|---------------------------------------------------------------------------------------------|
Bb|---------------------------------------------------------------------------------------------|
Gb|--7--7--7--7-------------7--7--------7--7--------7-7---7--7-/11----------7--------7--------7-|
Db|--x--x--x--x------4---4--4--4--5--5--5--5--7--7--7-7---x--x-/-x----4--4--4--5--5--5--7--7--7-|
Ab|--5--5--5--5------4---4--4--4--5--5--5--5--7--7--7-7---5--5-/-9----4--4--4--5--5--5--7--7--7-|
Db|------------------4---4--------5--5--------7--7--------------------4--4-----5--5-----7--7----|

(Gtr 2) (Dist)
p.m----------------------------------------------------------------|
eb|---------------------------------------------------------------------------------|
Bb|---------------------------------------------------------------------------------|
Gb|---------------------------------------------------------------------------------|
Db|----------------------------------------------------2-2-2-2-2-2-2-2--------------|
Ab|------------------4-4-4-4-4-4-4-4--5-5-5-5-5-5-5-5--0-0-0-0-0-0-0-0--------------|
Db|-0-0-0-0-0-0-0-0--4-4-4-4-4-4-4-4--5-5-5-5-5-5-5-5-------------------------------|

[Pre-Chorus]
(Gtr 1)
eb|-----------------------------------------------------------------------------------------------|
Bb|-----------------------------------------------------------------------------------------------|
Gb|--------------------------------------------------------11-11-11-11-11-11-----12-12-11-11-11---|
Db|-----------------------------------------------------0---x--x--x--x--x--x--0---x--x--x--x--x---|
Ab|-----------------------------------------------------0---9--9--9--9--9--9--0--10-10--9--9--9---|
Db|-----------------------------------------------------0---------------------0-------------------|

(Gtr 2)
eb|---------------------------------------------------------------------------------|
Bb|-------------------------------------------------------------3------3------3-----|
Gb|-------------------------------------------------------------2------2------2-----|
Db|--4-4--4-4--4-4--4-4--4-4--5-5--5-5--5-5--5-5--5-5---0--0----0------0------0-----|
Ab|--4-4--4-4--4-4--4-4--4-4--5-5--5-5--5-5--5-5--5-5---0--0----0------0------0-----|
Db|--4-4--4-4--4-4--4-4--4-4--5-5--5-5--5-5--5-5--5-5---0--0----0------0------0-----|

[Chorus]
(Gtrs 1&2)
eb|---------------------------------------------0--0----------------------------|
Bb|---------------------------------------------3--3----------------------------|
Gb|---------------------------------------------2--2----------6---6-------------|
Db|--9--9-9--9--9-9---5--5-5--7--7-7----0--0-0--0--0---4--4-4-4---4-------------|
Ab|--9--9-9--9--9-9---5--5-5--5--5-5----0--0-0---------4--4-4-4---4-------------|
Db|--9--9-9--9--9-9---5--5-5--5--5-5----0--0-0---0-0---4--4-4-4---4-------------|

(Gtr 1)
eb|-0-0-0-0-0-0-0-0-0-0-0-0-0-0-0---------------------------------------------------|
Bb|-3-3-3-3-3-3-3-3-3-3-3-3-3-3-3---------------------------------------------------|
Gb|-2-2-2-2-2-2-2-2-2-2-2-2-2-2-2---------------------------------------------------|
Db|---------------------------------------------------------------------------------|
Ab|---------------------------------------------------------------------------------|
Db|---------------------------------------------------------------------------------|

(Gtr 1)
eb|---------------------------------------------------------------------------------------------|
Bb|---------------------------------------------------------------------------------------------|
Gb|--7--7--7--7-------------7--7--------7--7--------7-7---7--7-/11----------7--------7--------7-|
Db|--x--x--x--x------4---4--4--4--5--5--5--5--7--7--7-7---x--x-/-x----4--4--4--5--5--5--7--7--7-|
Ab|--5--5--5--5------4---4--4--4--5--5--5--5--7--7--7-7---5--5-/-9----4--4--4--5--5--5--7--7--7-|
Db|------------------4---4--------5--5--------7--7--------------------4--4-----5--5-----7--7----|

(Gtr 2)
Harm-----|
p.m----------------------------------------------------------------|
eb|------------------------------------------------------------------------------------|
Bb|-<7>--------------------------------------------------------------------------------|
Gb|----<7>-----------------------------------------------------------------------------|
Db|-------------------------------------------------------2-2-2-2-2-2-2-2--------------|
Ab|---------------------4-4-4-4-4-4-4-4--5-5-5-5-5-5-5-5--0-0-0-0-0-0-0-0--------------|
Db|----0-0-0-0-0-0-0-0--4-4-4-4-4-4-4-4--5-5-5-5-5-5-5-5-------------------------------|

(Gtr 1)
eb|-----------------------------------------------------------------------------------------------|
Bb|-----------------------------------------------------------------------------------------------|
Gb|--------------------------------------------------------11-11-11-11-11-11-----12-12-11-11-11---|
Db|-----------------------------------------------------0---x--x--x--x--x--x--0---x--x--x--x--x---|
Ab|-----------------------------------------------------0---9--9--9--9--9--9--0--10-10--9--9--9---|
Db|-----------------------------------------------------0---------------------0-------------------|

(Gtr 2)
eb|---------------------------------------------------------------------------------|
Bb|-------------------------------------------------------------3------3------3-----|
Gb|-------------------------------------------------------------2------2------2-----|
Db|--4-4--4-4--4-4--4-4--4-4--5-5--5-5--5-5--5-5--5-5---0--0----0------0------0-----|
Ab|--4-4--4-4--4-4--4-4--4-4--5-5--5-5--5-5--5-5--5-5---0--0----0------0------0-----|
Db|--4-4--4-4--4-4--4-4--4-4--5-5--5-5--5-5--5-5--5-5---0--0----0------0------0-----|

(Gtrs 1&2)
eb|---------------------------------------------0--0----------------------------|
Bb|---------------------------------------------3--3----------------------------|
Gb|---------------------------------------------2--2----------6---6-------------|
Db|--9--9-9--9--9-9---5--5-5--7--7-7----0--0-0--0--0---4--4-4-4---4-------------|
Ab|--9--9-9--9--9-9---5--5-5--5--5-5----0--0-0---------4--4-4-4---4-------------|
Db|--9--9-9--9--9-9---5--5-5--5--5-5----0--0-0---0-0---4--4-4-4---4-------------|

eb|---------------------------------------------------------------------------------|
Bb|---------------------------------------------------------------------------------|
Gb|---7--7---7--7---7--7---7--7---7--7---7--7---7--7---7--7---7---------------------|
Db|---x--x---x--x---x--x---x--x---x--x---x--x---x--x---x--x---x---------------------|
Ab|---5--5---5--5---5--5---5--5---5--5---5--5---5--5---5--5---5---------------------|
Db|---------------------------------------------------------------------------------|

eb|---------------------------------------------------------------------------------|
Bb|---------------------------------------------------------------------------------|
Gb|---7-\-6-/--7-/--9-\--7-\--6-----------------------------------------------------|
Db|---x---x----x----x----x----x-----------------------------------------------------|
Ab|---5-\-4-/--5-/--7-\--5-\--4-----------------------------------------------------|
Db|---------------------------------------------------------------------------------|

eb|---------------------------------------------------------------------------------|
Bb|---------------------------------------------------------------------------------|
Gb|---7--7---7--7---7--7---7--7---7--7---7--7---7--7---7--7---7---------------------|
Db|---x--x---x--x---x--x---x--x---x--x---x--x---x--x---x--x---x---------------------|
Ab|---5--5---5--5---5--5---5--5---5--5---5--5---5--5---5--5---5---------------------|
Db|---------------------------------------------------------------------------------|

eb|---------------------------------------------------------------------------------|
Bb|---------------------------------------------------------------------------------|
Gb|--7-7-7-7-7-7-7-7-11-11-11-11-11-11-11-11--12-12-12-12-12-12-12-12-12-12-12-12---|
Db|--x-x-x-x-x-x-x-x--x--x--x--x--x--x--x--x---x--x--x--x--x--x--x--x--x--x--x--x---|
Ab|--5-5-5-5-5-5-5-5--9--9--9--9--9--9--9--9--10-10-10-10-10-10-10-10-10-10-10-10---|
Db|---------------------------------------------------------------------------------|

eb|---------------------------------------------------------------------------------|
Bb|---------------------------------------------------------------------------------|
Gb|---7-\-6-/--7-/--9-\--7-\--6-----------------------------------------------------|
Db|---x---x----x----x----x----x-----------------------------------------------------|
Ab|---5-\-4-/--5-/--7-\--5-\--4-----------------------------------------------------|
Db|---------------------------------------------------------------------------------|

(Gtr 1)
w/Phaser-----------------------------------------------------------|
eb|---------------------------------------------0--0-------------------x-x-x-x---------|
Bb|---------------------------------------------3--3-------------------x-x-x-x---------|
Gb|---------------------------------------------2--2----------6---6----x-x-x-x---------|
Db|--9--9-9--9--9-9---5--5-5--7--7-7----0--0-0--0--0---4--4-4-4---4----x-x-x-x---------|
Ab|--9--9-9--9--9-9---5--5-5--5--5-5----0--0-0---------4--4-4-4---4----x-x-x-x---------|
Db|--9--9-9--9--9-9---5--5-5--5--5-5----0--0-0---0-0---4--4-4-4---4----x-x-x-x--22\----|

(Gtr 2)
eb|--------------------------------------------------------------------x-x-x-x----------|
Bb|--------------------------------------------------------------------x-x-x-x----------|
Gb|--------------------------------------------------------------------x-x-x-x----------|
Db|--------------------------------------------------------------------x-x-x-x----------|
Ab|--------------------------------------------------------------------x-x-x-x----------|
Db|--------------------------------------------------------------------x-x-x-x--22\-----|

(Gtrs 1&2)
eb|---------------------------------------------0--0----------------------------|
Bb|---------------------------------------------3--3----------------------------|
Gb|---------------------------------------------2--2----------6---6-------------|
Db|--9--9-9--9--9-9---5--5-5--7--7-7----0--0-0--0--0---4--4-4-4---4-------------|
Ab|--9--9-9--9--9-9---5--5-5--5--5-5----0--0-0---------4--4-4-4---4-------------|
Db|--9--9-9--9--9-9---5--5-5--5--5-5----0--0-0---0-0---4--4-4-4---4-------------|

(Gtr 1)
eb|-0-0-0-0-0-0-0-0-0-0-0-0-0-0-0-0-0-0-0-0-0-0-0-0-0-0-0--0------------------------|
Bb|-3-3-3-3-3-3-3-3-3-3-3-3-3-3-3-3-3-3-3-3-3-3-3-3-3-3-3--3------------------------|
Gb|-2-2-2-2-2-2-2-2-2-2-2-2-2-2-2-2-2-2-2-2-2-2-2-2-2-2-2--2------------------------|
Db|---------------------------------------------------------------------------------|
Ab|---------------------------------------------------------------------------------|
Db|---------------------------------------------------------------------------------|

(Gtr 2)
eb|---------------------------------------------------------------------------------|
Bb|---------------------------------------------------------------------------------|
Gb|--------------------------------------------------------7------------------------|
Db|---------------------------------0----------------------7------------------------|
Ab|---------------------------------0----------------------5------------------------|
Db|---------------------------------0-----------------------------------------------|



************************************

| b Bend
| / Slide up
| x Dead note
| \ Slide down

************************************
Tunning: Standard (E A D G B e)
Finch - Letters to You
Tabbed by Iain Reilly

For more tabs by various bans: http://www.geocities.com/procession83

Intro (Guitar 1) x1
Eb|-----------------------------------------------------------|
Bb|-3-3-3-3-3-3-3-3-3-3-3-3-3-3-3-3-3-3-3-3-3-3-3-3-3-3-3-3-3-|
Gb|-2-2-2-2-2-2-2-2-2-2-2-2-2-2-2-2-2-2-2-2-2-2-2-2-2-2-2-2-2-|
Db|-0-0-0-0-0-0-0-0-0-0-0-0-0-0-0-0-0-0-0-0-0-0-0-0-0-0-0-0-0-|
Ab|-----------------------------------------------------------|
Db|-----------------------------------------------------------|

Verse (Guitar 1) x2
Eb|-----------------------------------------------------------------|
Bb|-----------------------------------------------------------------|
Gb|-----------------------------------------------------------------|
Db|-----------------------------------------------------------------|
Ab|-0-0-0-0-0-0-0-0-4-4-4-4-4-4-4-4-5-5-5-5-5-5-5-5-7-7-7-7-7-7-7-7-|
Db|-0-0-0-0-0-0-0-0-4-4-4-4-4-4-4-4-5-5-5-5-5-5-5-5-7-7-7-7-7-7-7-7-|
PM ...............................................................

Verse (Guitar 2) x1
Eb|-----------------------------------------------------------------|
Bb|-----------------------------------------------------------------|
Gb|-7--7--7--7--7-7-------------------------------------------------|
Db|-x--x--x--x--x-x-4--4--4--4--4-4-5--5--5--5--5-5-7--7--7--7--7-7-|
Ab|-5--5--5--5--5-5-4--4--4--4--4-4-5--5--5--5--5-5-7--7--7--7--7-7-|
Db|-----------------4--4--4--4--4-4-5--5--5--5--5-5-7--7--7--7--7-7-|

Eb|-----------------------------------------------------------------|
Bb|-----------------------------------------------------------------|
Gb|-7------7----9---7---------6-----7--------6------7---9--9--9-9-9-|
Db|-x------x----x---x---------x-----x--------x------x---x--x--x-x-x-|
Ab|-5------5----7---5---------4-----5--------4------5---7--7--7-7-7-|
Db|-----------------------------------------------------------------|

Pre-Chorus (Guitar 1) x2
Eb|-------------------------------------------------------------------------|
Bb|-------------------------------------------------------------------------|
Gb|-------------------------------------------------------------------------|
Db|-4-4--4-4--4-4--4-4--4-4-4--5-5--5-5--5-5--5-5--5-5-5--0----0-----0----0-|
Ab|-4-4--4-4--4-4--4-4--4-4-4--5-5--5-5--5-5--5-5--5-5-5--0----0-----0----0-|
Db|-4-4--4-4--4-4--4-4--4-4-4--5-5--5-5--5-5--5-5--5-5-5--0----0-----0----0-|

Pre-Chorus (Guitar 2) x2
Eb|-----------------------------|
Bb|-----------------------------|
Gb|---11-11-11---12-11-11-11-11-|
Db|-0--x--x--x-0--x--x--x--x--x-|
Ab|-0--9--9--9-0-10--9--9--9--9-|
Db|-0----------0----------------|

Chorus (Guitar 1) x2
Eb|-------------------------------------------------|
Bb|-------------------------------------------------|
Gb|-------------------------------------------------|
Db|-9-9-9-9-9-9-5-5-5-5-5-5-0-0-0-0-0-0-4-4-4-4-4-4-|
Ab|-9-9-9-9-9-9-5-5-5-5-5-5-0-0-0-0-0-0-4-4-4-4-4-4-|
Db|-9-9-9-9-9-9-5-5-5-5-5-5-0-0-0-0-0-0-4-4-4-4-4-4-|

Chorus (Guitar 2) x1
Eb|-------------------------------------------------------------|
Bb|-------------------------------------------------------------|
Gb|-------------------------7-7-7-7-7-7-7-7-7-7-7-7-------------|
Db|-9-9-9-9-9-9-5-5-5-5-5-5-x-x-x-x-x-x-x-x-x-x-x-x-4-4-4-4-4-4-|
Ab|-9-9-9-9-9-9-5-5-5-5-5-5-5-5-5-5-5-5-5-5-5-5-5-5-4-4-4-4-4-4-|
Db|-9-9-9-9-9-9-5-5-5-5-5-5-------------------------4-4-4-4-4-4-|

Eb|-------------------------------------------------------------------|
Bb|-------------------------------------------------------------------|
Gb|-11-11-11-11-11-11-7-7-7-7-7-7-7-7-7-7-7-7-7-7-7-7-7-7-------------|
Db|--9--9--9--9--9--9-5-5-5-5-5-5-x-x-x-x-x-x-x-x-x-x-x-x-4-4-4-4-4-4-|
Ab|--9--9--9--9--9--9-5-5-5-5-5-5-5-5-5-5-5-5-5-5-5-5-5-5-4-4-4-4-4-4-|
Db|--9--9--9--9--9--9-5-5-5-5-5-5-------------------------4-4-4-4-4-4-|

Bridge (Guitar 1) x1
Eb|---------------------------|
Bb|-3-3-3-3-3-3-3-3-3-3-3-3-3-|
Gb|-2-2-2-2-2-2-2-2-2-2-2-2-2-|
Db|-0-0-0-0-0-0-0-0-0-0-0-0-0-|
Ab|---------------------------|
Db|---------------------------|

Verse x2
Pre-Chorus x2
Chorus x4

Interlude Part 1 (Guitar 2) x1
Eb|--------------------------------------------------|
Bb|--------------------------------------------------|
Gb|-7-7--7-7--7-7--7-7--7-7--7-7--7-7--7-7--7-7--7-7-|
Db|-x-x--x-x--x-x--x-x--x-x--x-x--x-x--x-x--x-x--x-x-|
Ab|-5-5--5-5--5-5--5-5--5-5--5-5--5-5--5-5--5-5--5-5-|
Db|--------------------------------------------------|

Interlude Part 2 (Guitar 2) x3
Eb|-------------------------------------------------------|
Bb|-------------------------------------------------------|
Gb|-7-7--7-7--7-7--7-7--7-7--7-7--7-7--7-7--7-7--7-7--7-7-|
Db|-x-x--x-x--x-x--x-x--x-x--x-x--x-x--x-x--x-x--x-x--x-x-|
Ab|-5-5--5-5--5-5--5-5--5-5--5-5--5-5--5-5--5-5--5-5--5-5-|
Db|-------------------------------------------------------|

Interlude Part 2 (Guitar 1) x4
Eb|-----------------------------------------------------------------|
Bb|-----------------------------------------------------------------|
Gb|-7-7-7-7-7-7-6-6-6-6-6-6-7-7-7-7-9-9-9-9-9-9-7-7-7-7-7-7-6-6-6-6-|
Db|-x-x-x-x-x-x-x-x-x-x-x-x-x-x-x-x-x-x-x-x-x-x-x-x-x-x-x-x-x-x-x-x-|
Ab|-5-5-5-5-5-5-4-4-4-4-4-4-5-5-5-5-7-7-7-7-7-7-5-5-5-5-5-5-4-4-4-4-|
Db|-----------------------------------------------------------------|

Interlude End (Guitar 1) x1 w/ some kind of effect
Eb|----------------------------------------------------------------------|
Bb|----------------------------------------------------------------------|
Gb|----------------------------------------------------------------------|
Db|----------------------------------------------------------------------|
Ab|----------------------------------------------------------------------|
Db|-9-9-9-9-9-9-9-9-5-5-5-5-5-5-5-5-0-0-0-0-0-0-0-0-4-4-4-4-4-4-4-4-20\\-|

Final Chorus (Guitar 1) x5
Eb|-------------------------------------------------|
Bb|-------------------------------------------------|
Gb|-------------------------------------------------|
Db|-9-9-9-9-9-9-5-5-5-5-5-5-0-0-0-0-0-0-4-4-4-4-4-4-|
Ab|-9-9-9-9-9-9-5-5-5-5-5-5-0-0-0-0-0-0-4-4-4-4-4-4-|
Db|-9-9-9-9-9-9-5-5-5-5-5-5-0-0-0-0-0-0-4-4-4-4-4-4-|

Final Chorus (Guitar 2) x5
Eb|---------------------------------------------------------------|
Bb|---------------------------------------------------------------|
Gb|---------------------------7-7--7-7--7-7--7-7--7-7-----6---6---|
Db|-9-9-11-9-11-9-5-5-7-5-7-5-x-x--x-x--x-x--x-x--x-x-4-4-4-4-4-4-|
Ab|-9-9--9-9--9-9-5-5-5-5-5-5-5-5--5-5--5-5--5-5--5-5-4-4-4-4-4-4-|
Db|-9-9--9-9--9-9-5-5-5-5-5-5-------------------------4-4-4-4-4-4-|

Outro (Guitar 1) x1
Eb|---------------------------------------------------------|
Bb|-3-3-3-3-3-3-3-3-3-3-3-3-3-3-3-3-3-3-3-3-3-3-3-3-3-3-3-3-|
Gb|-2-2-2-2-2-2-2-2-2-2-2-2-2-2-2-2-2-2-2-2-2-2-2-2-2-2-2-2-|
Db|-0-0-0-0-0-0-0-0-0-0-0-0-0-0-0-0-0-0-0-0-0-0-0-0-0-0-0-0-|
Ab|---------------------------------------------------------|
Db|---------------------------------------------------------|

Eb|-----------------------------------------------------------|
Bb|-3-3-3-3-3-3-3-3-3-3-3-3-3-3-3-3-3-3-3-3-3-3-3-3-3-3-3-3-3-|
Gb|-2-2-2-2-2-2-2-2-2-2-2-2-2-2-2-2-2-2-2-2-2-2-2-2-2-2-2-2-2-|
Db|-0-0-0-0-0-0-0-0-0-0-0-0-0-0-0-0-0-0-0-0-0-0-0-0-0-0-0-0-0-|
Ab|---------------------------------------------------------0-|
Db|---------------------------------------------------------0-|

Outro (Guitar 2) x1
Eb|-----------------------------------------------------------|
Bb|---------------------------------------------------------3-|
Gb|---------------------------------------------------------2-|
Db|-0-------------------------------------------------------0-|
Ab|-0-------------------------------------------------------0-|
Db|-0-------------------------------------------------------0-|

Comments/Rants/Corrections: Obscure_Divine_Manifestation@hotmail.com
Tunning: Standard (E A D G B e)
Letters To You (Acoustic) - Finch
Standard Tuning

Order of song
Intro (16x)
Verse
Pre-Chorus
Chorus
Intro (2x)
Verse
Pre-Chorus
Chorus
Intro (4x)
Bridge
Chorus

Intro
|---------------------------------------------------|
|---------------------------------------------------|
|--7-----6-----9-----11-----11-------repeat that----|
|----0-----0-----0------0------0------shizz--16-----|
|------0-----0-----0------0------0------times-------|
|---------------------------------------------------|

Verse
|--0--0--0--0---------------------------------------|
|--3--0--3--0---------------------------------------|
|--2--2--0--2-----Strum each chord 16 times---------|
|--0--4--0--2---------------------------------------|
|--0--4--2--0---------------------------------------|
|--x--x--x--x---------------------------------------|

Pre-Chorus
|--x--x--x--x---------------------------------------|
|--x--x--x--x---------------------------------------|
|--6--7--7--6-----Strum each chord 16 times---------|
|--x--x--7--7---------------------------------------|
|--4--5--5--5---------------------------------------|
|--x--x--x--x---------------------------------------|

CHORUS
|--x--x--0--x---------------------------------------|
|--x--x--3--x---------------------------------------|
|--4--x--2--6-----Strum each chord 16 times---------|
|--4--5--0--6---------------------------------------|
|--2--5--0--4---------------------------------------|
|--x--3--x--x---------------------------------------|

Bridge
|--x--x---------------------------------------------|
|--x--x---------------------------------------------|
|--9--7-----------Strum each chord 16 times---------|
|--x--x---------------------------------------------|
|--7--5---------------------------------------------|
|--x--x---------------------------------------------|
Tunning: Standard (E A D G B e)
LETTERS TO YOU
FINCH
WHAT IT IS TO BURN

INTRO

e|----4-----|
B|----4-----|
G|----6-----|
D|----6-----|
A|----------|
E|----------|

ESTROFA

e|----------------------|
B|----------------------|
G|----6-----------------|
D|----6----3----4----6--| X2
A|----4----3----4----6--|
E|---------1----2----4--|

PRE-CORO

e|----------------------------|
B|----------------------------|
G|--------------6----5----8---|
D|----3----4----6----5----8---| X2
A|----3----4----4----3----6---|
E|----1----2------------------|

CORO

e|----------------------|
B|----------------------|
G|----3---------6-------|
D|----3----4----6----3--| X2
A|----1----4----4----3--|
E|---------2---------1--|

INTRO

ESTROFA

PRE-CORO

CORO

INTERLUDO

e|--------------|
B|--------------|
G|----7---------|
D|----X--.....--|
A|----5---------|
E|--------------|

LIRICA
------

Can't you see
That I wanna be
There with open arms
It's empty tonight ESTROFA
And I'm all alone
Get me through this one

Do you notice I'm gone?
Where do you run to PRE-CORO
So far away?

I want you to know that
I miss you, I miss you so CORO
I want you to know that
I miss you, I miss you so

I'm writing again
These letters to you
Aren't much I know ESTROFA
But I'm not sleeping and
You're not here
The thought stops my heart

Do you notice I'm gone?
Where do you run to PRE-CORO
So far away?

I want you to know that
I miss you, I miss you so
I want you to know that
I miss you, I miss you so CORO
I want you to know that
I miss you, I miss you so
I want you to know that
I miss you, I miss you so

I've gone away
I've gone away INTERLUDO

That I wanna be
There with open arms
It's empty tonight ESTROFA
And I'm all alone
Get me through this one

Do you notice I'm gone?
Where do you run to PRE-CORO
So far away?

I want you to know that
I miss you, I miss you so
I want you to know that CORO
I miss you, I miss you so

I'm writing again
These letters to you
Aren't much I know ESTROFA
But I'm not sleeping and
You're not here
The thought stops my heart

Do you notice I'm gone?
Where do you run to PRE-CORO
So far away?

I want you to know that
I miss you, I miss you so
I want you to know that CORO
I miss you, I miss you so
I want you to know that
I miss you, I miss you so
I want you to know that
I miss you, I miss you so

I've gone away INTERLUDO
I've gone away

LA VERSIÒN ES FÀCIL Y MENOS PRODUCIDA QUE LAS DEMÀS, PERO PARA QUIENES ESTAN RECIÈN
ES SUPER ÙTIL. CHAU
AHI TE VA NATITA. BESOS

CUALQUIER DUDA ... HALFWAYTOHOME@HOTMAIL.COM
Song info
Letters To You
Finch
2001
  • Rock
  • Alternative Rock
Similar songs
Sour Girl - Stone Temple Pilots
Oh The Guilt - Nirvana
Human - The Killers

Hi! Hope you enjoy backing track experience.
If you want to help us in the development of the project, feel free to donate!