Landslide - Fleetwood Mac
00:00 / 00:00
Tabs and lyrics
Tunning: Standard (E A D G B e)
Song: Landslide
Band: Fleetwood mac
Album: The Dance
Tabbed: Daniel Thomas (dt_69er@hotmail.com)
Tuning: E A D G B E
Capo: on the 3rd fret

chords used:
C: x32010
G/B: x20033
Am7: x02010
G: 320003
G/B*: x20030
Am7/G: x02013
C/G: x32013


[INTRO]

C G/B Am7 G/B
e|-----------------|----------------|----------------|----------------|
B|-------1---------|------3---------|------1---------|------3---------|
G|---0-------0-----|--0-------0-----|--0-------0-----|--0-------0-----|(repeat
D|-----2-------2---|----0-------0---|----2-------2---|----0-------0---| 5x)
A|-3-------3-------|2-------2-------|0-------0-------|2-------2-------|
E|-----------------|----------------|----------------|----------------|

C G/B Am7
e|---------------|---------------|-----------------------|
B|-------1-------|-------3-------|-------1-----0-1-------|
G|---0-------0---|---0-------0---|---0-------------------|
D|-----2-------2-|-----0-------0-|-----2-----2-----2---0-|
A|-3-------3-----|-2-------2-----|-0-------0---0-----2---|
E|---------------|---------------|-----------------------|

C G/B
e|---------------|---------------|-------------------|
B|-------1-------|-------3-------|---1p0-1p0---3-1-0-|
G|---0-------0---|---0-------0---|-----------2-------|
D|-----2-------2-|-----0-------0-|-------------------|
A|-3-------3-----|-2-------2-----|-0-----------------|
E|---------------|---------------|-------------------|

C G/B Am7/G G/B
e|-------0-----|-------3-----|-------3-----|-------3-----|
B|-1-----------|-3-----------|-1-----------|-3-----------|
G|---0---------|---0---------|---0---------|---0---------| (repeat
D|-----2-----2-|-----0-----0-|-----2-----2-|-----0-----0-| 3x)
A|-3-------3---|-2-------2---|-0-------0---|-2-------2---|
E|-------------|-------------|-------------|-------------|

e|---------|---------|-------------------|
B|---------|---------|---1p0-1p0---3-1-0-|
G|---------|---------|-----------2-------|
D|---0---0-|---0---0-|-------------------|
A|-3---3---|-2---2---|-0-----------------|
E|---------|---------|-------------------|

(let last note of last 3 measures of this line ring)
C G/B Am7 G/B
e|---------------|---------|-------0-|---------|
B|-------1-------|-------3-|-1-------|-3-----1-|
G|---0-------0---|---0-----|---0-----|---0-----|
D|-----2-------2-|-----0---|-----2---|-----0---|
A|-3-------3-----|-2-------|-0-------|-2-------|
E|---------------|---------|---------|---------|


[CHORUS]

G Am7 G/B* Am7
e|-------3-------|-------------|-------0-----|-0-----0-----|
B|---0-------0---|-1-----1-----|-3-----------|---1---------|
G|---------------|---0---------|---0---------|-----0-------|
D|---------------|-----2-----2-|-----0-----0-|-----2-----2-|
A|-----2-------2-|-0-------0---|-2-------2---|-0-------0---|
E|-3-------3-----|-------------|-------------|-------------|

C G/B Am7/G G/B
e|------0-------|-------3-------|-------3-------|---------|
B|--1-------1---|---3-------3---|---1-----1-----|-3-----1-|
G|--------------|---------------|-----------0---|---0-----|
D|----2-------2-|-----0-------0-|-----2-------2-|-----0---|
A|3-------3-----|-2-------2-----|-0-------------|-2-------|
E|--------------|---------------|---------------|---------|

G Am7 G/B* Am7
e|-------3-------|-------------|-------0-----|-0-----0-----|
B|---0-------0---|-1-----1-----|-3-----------|---1---------|
G|---------------|---0---------|---0---------|-----0-------|
D|---------------|-----2-----2-|-----0-----0-|-----2-----2-|
A|-----2-------2-|-0-------0---|-2-------2---|-0-------0---|
E|-3-------3-----|-------------|-------------|-------------|

C G/B Am7/G
e|------0-------|-------3-------|-------3-------3-----3---|
B|--1-------1---|---3-------3---|---1-----1-------1-----1-|
G|--------------|---------------|-----------0-------0-----|
D|----2-------2-|-----0-------0-|-----2-------2-----------|
A|3-------3-----|-2-------2-----|-0-----------------------|
E|--------------|---------------|-------------------------|


[SOLO]

e|-------------|---------|-0-------|---------|
B|---------0-3-|---------|-----3---|-0-------|
G|-----0h2-----|---------|---------|-----2-0-|
D|---0-----0---|---0---0-|---0---0-|---0---0-|
A|-3---3-------|-2---2---|-0---0---|-2---2---|
E|-------------|---------|---------|---------|

e|-----------|-----------|---------|---------|
B|-----------|-----------|---------|---------|
G|-------0h2-|-0---------|---------|---------|
D|---0---0---|---0-----0-|---0---0-|---0---0-|
A|-3---3-----|-2---2h3---|-0---0---|-2---2---|
E|-----------|-----------|---------|---------|

e|-------------|---------|-0-------|---------|
B|---------0-3-|---------|-----3---|-0-------|
G|-----0h2-----|---------|---------|-----2-0-|
D|---0-----0---|---0---0-|---0---0-|---0---0-|
A|-3---3-------|-2---2---|-0---0---|-2---2---|
E|-------------|---------|---------|---------|

e|-------------------|-3-2-3-5-3-2-3-2-0---0---------|
B|-----1-0-----------|-------------------3---3-1-0---|
G|---0-----2-0-------|-----------------------------2-|
D|-2-----------0h2p0-|-------------------------------|
A|-------------------|-------------------------------|
E|-------------------|-------------------------------|


[CHORUS]

G Am7 G/B* Am7
e|-------3-------|-------------|-------0-----|-0-----0-----|
B|---0-------0---|-1-----1-----|-3-----------|---1---------|
G|---------------|---0---------|---0---------|-----0-------|
D|---------------|-----2-----2-|-----0-----0-|-----2-----2-|
A|-----2-------2-|-0-------0---|-2-------2---|-0-------0---|
E|-3-------3-----|-------------|-------------|-------------|

C G/B Am7/G G/B
e|------0-------|-------3-------|-------3-------|---------|
B|--1-------1---|---3-------3---|---1-----1-----|-3-----1-|
G|--------------|---------------|-----------0---|---0-----|
D|----2-------2-|-----0-------0-|-----2-------2-|-----0---|
A|3-------3-----|-2-------2-----|-0-------------|-2-------|
E|--------------|---------------|---------------|---------|

G Am7 G/B* Am7
e|-------3-------|-------------|-------0-----|-0-----0-----|
B|---0-------0---|-1-----1-----|-3-----------|---1---------|
G|---------------|---0---------|---0---------|-----0-------|
D|---------------|-----2-----2-|-----0-----0-|-----2-----2-|
A|-----2-------2-|-0-------0---|-2-------2---|-0-------0---|
E|-3-------3-----|-------------|-------------|-------------|

C G/B Am7/G G/B
e|------0-------|-------3-------|-------3-------|-------3-------|
B|--1-------1---|---3-------3---|---1-------1---|---3-------3---|
G|--------------|---------------|---------------|---------------|
D|----2-------2-|-----0-------0-|-----2-------2-|-----0-------0-|
A|3-------3-----|-2-------2-----|-0-------0-----|-2-------2-----|
E|--------------|---------------|---------------|---------------|

C G/B Am7/G
e|-------0-------|-------3-------|-------3--------3-----3---|
B|---1-------1---|---3-------3---|---1------1-------1-----1-|
G|---------------|---------------|------------0-------0-----|
D|-----2-------2-|-----0-------0-|-----2--------2-----------|
A|-3-------3-----|-2-------2-----|-0------------------------|
E|---------------|---------------|--------------------------|

e|---------|--------|---------|---------|
B|---------|--------|---------|---------|
G|---------|--------|---------|---------| repeat once
D|---0---0-|---0---0|---0---0-|---0---0-|
A|-3---3---|-2---2--|-0---0---|-2---2---|
E|---------|--------|---------|---------|

C G/B Am7 G/B
e|-----------------|----------------|----------------|-------3-------|
B|-------1---------|------3---------|------1---------|--3--------3---|
G|---0-------0-----|--0-------0-----|--0-------0-----|---------------|
D|-----2-------2---|----0-------0---|----2-------2---|----0--------0-|
A|-3-------3-------|2-------2-------|0-------0-------|2--------2-----|
E|-----------------|----------------|----------------|---------------|


C/G G/B Am7/G G/B
e|------3-------|-------3-------|-------3-------|-------3-------|
B|--1-------1---|---3-------3---|---1-------1---|---3-------3---|
G|--------------|---------------|---------------|---------------|
D|----2-------2-|-----0-------0-|-----2-------2-|-----0-------0-|
A|3-------3-----|-2-------2-----|-0-------0-----|-2-------2-----|
E|--------------|---------------|---------------|---------------|

C G/B
e|------0-------|-------3-------|------------|
B|--1-------1---|---3-------3---|------------|
G|--------------|---------------|------------|
D|----2-------2-|-----0-------0-|------------|
A|3-------3-----|-2-------2-----|-0(let ring)|
E|--------------|---------------|------------|

e|-------3-3-2-2---0(let ring)|
B|---0-3---------3------------|
G|-0--------------------------|
D|----------------------------|
A|----------------------------|
E|----------------------------|

C G/B Am7/G G/B
e|---------------|---------------|-------3-------|-------3-------|
B|-------1-------|-------3-------|---1-------1---|---3-------3---|
G|---0-------0---|---0-------0---|---------------|---------------|
D|-----2-------2-|-----0-------0-|-----2-------2-|-----0-------0-|
A|-3-------3-----|-2-------2-----|-0-------0-----|-2-------2-----|
E|---------------|---------------|---------------|---------------|

C G/B Am
e|-0-----0-----0-----|-3-----3-----3-----|---------0-|
B|---1-----1-----1---|---3-----3-----3---|-------1---|
G|-----0-----0-------|-----0-----0-------|-----2-----|
D|-------2-----------|-------0-----------|---2-------|
A|-3-----------3-----|-2-----------2-----|-0---------|
E|-------------------|-------------------|-----------|


***********************************
| h Hummer-on
| p Pull-off
***********************************
Tunning: Standard (E A D G B e)
Fleetwood Mac/The Dixie Chicks - Landslide
Tabbed and arranged by: Alejandro Manzano of Boyce Avenue

www.myspace.com/boyceavenue

video of me playing/singing it:
http://www.youtube.com/watch?v=S-NJ8MTMFY8

Tuning: E A D G B E (standard)(capo 3rd fret)


[Intro]

e|-------------------------------------------------|
B|-----1-----------3-----------1-----------3-------|
G|-------0---0-------0---0-------0---0-------0---0-|
D|---2-----2-----0-----0-----2-----2-----0-----0---|
A|-3-----------2-----------0-----------2-----------|
E|-------------------------------------------------|

e|-----------------------------------------------|
B|-----1-----------3-----------1^0---------------|
G|-------0---0-------0---0---------0---0-------0-|
D|---2-----2-----0-----0-----2-------2-------0---|
A|-3-----------2-----------0---------------2-----|
E|-----------------------------------------------|


[Verse 1]

e|-------------------------------------------------|
B|-----1-----------3-----------1-----------3-------|
G|-------0---0-------0---0-------0---0-------0---0-|
D|---2-----2-----0-----0-----2-----2-----0-----0---| (Play 3x)
A|-3-----------2-----------0-----------2-----------|
E|-------------------------------------------------|

e|-----------------------------------------------|
B|-----1-----------3-----------1^0---------------|
G|-------0---0-------0---0---------0---0-------0-|
D|---2-----2-----0-----0-----2-------2-------0---|
A|-3-----------2-----------0---------------2-----|
E|-----------------------------------------------|

(Play 5x)
e|-----------------------------------------------------------------|
B|-------1---------------3---------------1---------------3---------|
G|---0-------0---0---0-------0---0---0-------0---0---0-------0---0-|
D|-----2-------2-------0-------0-------2-------2-------0-------0---|
A|-3-------3-------2-------2-------0-------0-------2-------2-------|
E|-----------------------------------------------------------------|

e|-----------------------------------------------------------------|
B|-------1---------------3---------------1---------------1---------|
G|---0-------0---0---0-------0---0---0-------0---0---2-------2---0-|
D|-----2-------2-------0-------0-------2-------2-------0-------0---|
A|-3-------3-------2-------2-------0-------0-----------------------|
E|-------------------------------------------------2-------2-------|


[Chorus 1]

e|-------------------------------------------------------0---------|
B|-------3---------------3---------------0-------------------------|
G|---0-------0---0---2-------2---0---0-------0---0---0-------0---0-|
D|-----0-------0-------0-------0-------2-------2-------2-------2---|
A|-----------------------------------------2---------------2-------|
E|-3-------3-------2-------2-------0---------------0---------------|

e|-----------------------------------------------------------------|
B|-------1---------------3---------------1---------------1---------|
G|---0-------0---0---0-------0---0---0-------0---0---2-------2---0-|
D|-----2-------2-------0-------0-------2-------2-------0-------0---|
A|-3-------3-------2-------2-------0-------0-----------------------|
E|-------------------------------------------------2-------2-------|

e|-------------------------------------------------------0---------|
B|-------3---------------3---------------0-------------------------|
G|---0-------0---0---2-------2---0---0-------0---0---0-------0---0-|
D|-----0-------0-------0-------0-------2-------2-------2-------2---|
A|-----------------------------------------2---------------2-------|
E|-3-------3-------2-------2-------0---------------0---------------|

e|-----------------------------------------------------------------|
B|-------1---------------3---------------1-------------1-------3---|
G|---0-------0---0---0-------0---0---0-------0---0-------0-------0-|
D|-----2-------2-------0-------0-------2-------2-----2-------0-----|
A|-3-------3-------2-------2-------0-------0-------0-------2-------|
E|-----------------------------------------------------------------|


[Solo]

e|---------------------------------------------------------------|
B|------------0^3-----------3-3^5--3-------------------------3---|
G|--------0-2---------0-2/4----------2^4-4^2-0-------0^2-0-----0-|
D|----0-2-----------0----------------------------0^2-------0-----|
A|-3--------------2-----------0------2---------3---------2-------|
E|---------------------------------------------------------------|

e|-2-3-2-3-3/5\3-2-3-2^0^2^0---------|
B|---------------------------3-1-0---|
G|---------------------------------2-|
D|-------------------0---------------|
A|-0---------------------------------|
E|-----------------------------------|


[Chorus 2]

e|-------------------------------------------------------0---------|
B|-------3---------------3---------------0-------------------------|
G|---0-------0---0---2-------2---0---0-------0---0---0-------0---0-|
D|-----0-------0-------0-------0-------2-------2-------2-------2---|
A|-----------------------------------------2---------------2-------|
E|-3-------3-------2-------2-------0---------------0---------------|

e|---------------------------------------------|
B|-------1---------------3---------------1-----|
G|---0-------0---0---0-------0---0---0-------0-|
D|-----2-------2-------0-------0-------2-------|
A|-3-------3-------2-------2-------0-------0---|
E|---------------------------------------------|

e|-------------------------|
B|-------------------------|
G|-4\2-2—0^2^0-------------|
D|-----0-------4-2-0-------|
A|-----0-------------3-0^2-|
E|-----2---------------3---|

e|---------------------------------------------------0---------|
B|---3---------------3---------------0-------------------------|
G|-------0---0---2-------2---0---0-------0---0---0-------0---0-|
D|-0-------0-------0-------0-------2-------2-------2-------2---|
A|-------------------------------------2---------------2-------|
E|-----3-------2-------2-------0---------------0---------------|

e|-----------------------------------------------------------------|
B|-------1---------------3---------------1---------------3---------|
G|---0-------0---0---0-------0---0---0-------0---0---0-------0---0-|
D|-----2-------2-------0-------0-------2-------2-------0-------0---|
A|-3-------3-------2-------2-------0-------0-------2-------2-------|
E|-----------------------------------------------------------------|

e|-----------------------------------------------------------------|
B|-------1---------------3---------------1-------------1-------3---|
G|---0-------0---0---0-------0---0---0-------0---0-------0-------0-|
D|-----2-------2-------0-------0-------2-------2-----2-------0-----|
A|-3-------3-------2-------2-------0-------0-------0-------2-------|
E|-----------------------------------------------------------------|


[Verse 2]

e|-0-----------------------------------|
B|-1---3---------1-------------3-------|
G|-0---0-----------0---0---------0---0-|
D|-2---0-----0^2-----2-------0-----0---|
A|-3---2---0-------------0^2-----------|
E|-------------------------------------|

e|-0-------------------------------------|
B|-1---3---------1-----------1-------3---|
G|-0---0-----------0---0-------0-------0-|
D|-2---0-----0^2-----2-----2-------0-----|
A|-3---2---0-------------0-------2-------|
E|---------------------------------------|

(Play 6x)
e|-----------------------------------------------------------------|
B|-------1---------------3---------------1---------------3---------|
G|---0-------0---0---0-------0---0---0-------0---0---0-------0---0-|
D|-----2-------2-------0-------0-------2-------2-------0-------0---|
A|-3-------3-------2-------2-------0-------0-------2-------2-------|
E|-----------------------------------------------------------------|

e|-0-------0-|
B|-1---3---0-|
G|-0---0---5-|
D|-2---0---2-|
A|-3---2---0-|
E|-----------|


********************************
|x = mute
|^ = hammer on or pull off
|/ = slide
********************************
Tunning: Standard (E A D G B e)
Tabbed by:Dethro (Ryan McMahon)
Email:ikeman1156@yahoo.com

Tuning:Standard EADGBe
Listen to the song and you should be able to find this very easy and simple.

Capo:3rd fret

C G/B Am
e|---------------------------------------------------------------------|
B|----------1------------------------3------------------1--------------|
G|----0-------------0---0-------0---------0---0-----2-------2---2------|
D|-------2------------2-----------0---------0---------2-------2--------|
A|--3-----------3-------------2---------2---------0-------0------------|
E|---------------------------------------------------------------------|
G/B Am G/B
e|-------------------------------------------------------------------|
B|--------3-----------------1------1p0------------3------------------|
G|----0-------0---0------2-----2--------2-------------0---0----------|
D|------0-------0-----------2-----------2---------------0------------|
A|--2-------2----------0-----------0----------------2----------------|
E|-------------------------------------------------------------------|
Am7 G/B (C)
e|-----------3---------------------3----------------------3----------|
B|---1----------------------3---------------------1------------------|
G|------2---------2---2-------0----------0---0-------0--------0---0--|
D|--------2---------2-----------0----------0-----------2--------2----|
A|---0----------0-----------2----------2----------3---------3--------|
E|-------------------------------------------------------------------|
(G/B) (Am7) (G/B) ()=3xs
e|----------3-------------------3------------------------3------------|
B|-3---------------------1----------------------3---------------------|
G|----0---------0---0------2----------2---2--------0---------0---0----|
D|------0---------0----------2----------2------------0---------0------|
A|-2----------2----------0---------0------------2-----------2---------|
E|--------------------------------------------------------------------|
C G/B
e|----------3--------------------------3-------------------------|
B|-1-----------------------3-------------------------------------|
G|----0----------0---0--------0-------------0---0----------------|
D|-------2---------2-------------0------------0------------------|
A|-3----------3------------2--------2-----2----------------------|
E|---------------------------------------------------------------|
Am G/B
e|---------------------------------------------------------------|
B|------1-----1p0-------3----------1-------0h1-------------------|
G|----2---2--------2---------0----------0------------------------|
D|------2----------2-----------0-----------0---------------------|
A|--0---------0------------2----------2--------------------------|
E|---------------------------------------------------------------|
C G/B Am
e|----------------------------------------------------------------|
B|------------1-------------------3--------------------1----------|
G|------0----------0---0------0--------0---0------2--------2---2--|
D|---------2---------0----------0--------0----------2--------2----|
A|---3-----------3---------2---------2----------0--------0--------|
E|----------------------------------------------------------------|
D/F# Chorus play twice G D/F#
e|----------------------CHORUS----------------------------------------|
B|--3------1-------------------0------0------------3------1-----------|
G|----2---------2---2------------0---------0---0-----2--------2---2---|
D|------0---------0----------------0---------0---------0--------0-----|
A|--------------------------------------------------------------------|
E|--2--------2-----------------3--------3----------2--------2---------|
Em Em C G/B
e|--------0-----------------0-----------------3----------------3--------|
B|-0------------------0-----------------1----------------3--------------|
G|---0--------0---0-----0-------0---0-----0-------0---0----0------0---0-|
D|-----2--------2---------2-------2---------2-------2--------0------0---|
A|--------------------------------------3-------3--------2-------2------|
E|-0--------0---------0-------0-----------------------------------------|
Am7 D/F# G D/F#
e|--------3-----------------------------------3--------------------------|
B|-1------------------3-----1-----------0---------------3-----1----------|
G|---2--------2---2-----2-------2--0------0---------------2-------2---2--|
D|-----2--------2---------0------0----------0----0---0------0-------0----|
A|-0--------0--------------------------------------0---------------------|
E|--------------------2-------2---------3-------3-------2-------2--------|
Em Em C
e|--------0----------------0-----------------3-----------------------|
B|--0----------------0-----------------1-----------------------------|
G|----0-------0---0----0-------0---0-----0-------0---0---------------|
D|------2-------2--------2-------2---------2-------2-----------------|
A|-------------------------------------3-------3---------------------|
E|--0-------0--------0-------0---------------------------------------|
G/B CHORUS ENDS Am
e|-------3-----------------------------------------------------------|
B|-3--------------------1------0----1-----3--------------------------|
G|---0-------0------2-------2----2----2------------------------------|
D|-----0-------0------2--------2--------2----------------------------|
A|-2-------2------0-------0---------0-----2--------------------------|
E|-------------------------------------------------------------------|
SOLO G/B
e|---------------------------------------------------------------|
B|------------0--3-------3----------3/5------3-----0-------------|
G|------0h2----------0-------0---0----------------------2-0------|
D|---0-----------------0-------0---------0------0-----0---0------|
A|-3----3----------2-------2--------0--------0-----2----2--------|
E|---------------------------------------------------------------|
play the open D while hammer and pulloffs
e|----------------------------------------------------------------|
B|------------------------------1----1p0------3-------1------0h1--|
G|-------0h2p0----------------2---2-------2-------0-------0-------|
D|---0----0------0------0-------2---------2---------0--------0----|
A|-3---3-------2----2h3-----0--------0----------2-------2---------|
E|----------------------------------------------------------------|

e|----------------------------------------------------------------|
B|---------0--3-------3-----------3/5----3----0-------------------|
G|----0h2--------0---------0---0------------------2--0------------|
D|--0--------------0---------0--------0----0----0----0------------|
A|-3--3---------2--------2--------0------0----2---2---------------|
E|----------------------------------------------------------------|
C
e|------------------------------323/5---323--2p0-----0------------|
B|----------1------0------------------------------3----3-1-0------|
G|---0---0-----0-----0----------------------------------------2---|
D|--2-------2----------0---0-----------------0---------0----------|
A|-3---3-----------2-----2----0-----------------------------------|
E|----------------------------------------------------------------|

then repeat the chorus once or twice, what ever you wanna do, this is my first tab so its
out a little funny but this is the real live version so /=slide p=pull off h=hammer
and questions e-mail me at ikeman1156@yahoo.com, thanks.
Tunning: Standard (E A D G B e)
-------------------------------------------------------------------------------
Landslide - Fleetwood Mac
-------------------------------------------------------------------------------
Tabbed by: Lumos99
E-mail: unknownone159@gmail.com

Tuning: The woman singing this has a very deep voice so put capo on any fret.
I put mine on fret six but it just depends on hoy deep or high your voice is.
I learnt this last year and it's not as confusing as it sounds.
I tend to ignore the little riffs and just go for the base line of it.
:)
Tuning is standard though, there aren't any tuning changes needed.

Verse and Pre Chorus

e|-----------------|------------------|-----------------|-----------------||
B|-------1-------1-|-------3--------3-|-------1-------1-|-------3-------3-||
G|---0-------0-----|---0--------0-----|---2-------2-----|---0-------0-----|| x8
D|-----2-------2---|-----0--------0---|-----2-------2---|-----0-------0---||
A|-3-------3-------|-2--------2-------|-0-------0-------|-2-------2-------||
E|-----------------|------------------|-----------------|-----------------||

C G/B Am G

I took my love and took it down
I climbed a mountain and I turned around
And I saw my reflection in the snow-covered hills
Till the landslide brought me down

Oh, mirror in the sky, what is love?
Can the child within my heart rise above?
Can I sail through the changing ocean tides?
Can I handle the seasons of my life?

Chorus

e|-----------------|-----------------|------------------|-----------------|
B|-------0-------0-|-------1-------1-|-------0--------0-|-------0-------0-|
G|---0-------0-----|---2-------2-----|---0--------0-----|---0-------0-----|
D|-----0-------0---|-----0-------0---|-----2--------2---|-----2-------2---|
A|-----------------|-----------------|------------------|-----------------|
E|-3-------3-------|-2-------2-------|-0--------0-------|-0-------0-------|

G D/F# Em Em

e|-----------------|------------------|-----------------|-----------------||
B|-------1-------1-|-------3--------3-|-------1-------1-|-------1-------1-||
G|---0-------0-----|---0--------0-----|---2-------2-----|---2-------2-----|| x2
D|-----2-------2---|-----0--------0---|-----2-------2---|-----0-------0---||
A|-3-------3-------|-2--------2-------|-0-------0-------|-2-------2-------||
E|-----------------|------------------|-----------------|-----------------||

C G/B Am D/F#


Well, I've been afraid of changing
'Cause I've built my life around you
But time makes you bolder
Even children get older
And I'm getting older too

Well, I've been afraid of changing
'Cause I've built my life around you
But time makes you bolder
Even children get older
And I'm getting older too
Oh, I'm getting older too



e|-----------------|------------------|-----------------|-----------------||
B|-------1-------1-|-------3--------3-|-------1-------1-|-------3-------3-||
G|---0-------0-----|---0--------0-----|---2-------2-----|---0-------0-----|| x7
D|-----2-------2---|-----0--------0---|-----2-------2---|-----0-------0---||
A|-3-------3-------|-2--------2-------|-0-------0-------|-2-------2-------||
E|-----------------|------------------|-----------------|-----------------||

C G Am G


I take my love, take it down
I climb a mountain and turn around
And if you see my reflection in the snow-covered hills
Will the landslide bring you down
And if you see my reflection in the snow-covered hills
Will the landslide bring you down, oh, oh
The landslide bring you down

End on an open Am chord


Tunning: Standard (E A D G B e)
"Landslide" by Steve Nicks / Fleetwood Mac
Tuning : E A D G B E Time Signature 4/4
Capo 3rd Fret
 
C G/B

e|--------------------------------|--------------------------------|
B|------------1---------------1---|------------3---------------3---|
G|----0---------------0-----------|----0---------------0-----------|
D|--------2---------------2-------|--------0---------------0-------|
A|3---------------3---------------|2---------------2---------------|
E|--------------------------------|--------------------------------|
 
 
Am7 G/B

e|--------------------------------|--------------------------------|
B|------------1---------------1---|------------3---------------3---|
G|----0---------------0-----------|----0---------------0-----------|
D|--------2---------------2-------|--------0---------------0-------|
A|0---------------0---------------|2---------------2---------------|
E|--------------------------------|--------------------------------|
 
C G/B Am7 G/B
I took my love, I took it down
C G/B Am7 G/B
Climbed a mountain and I turned around
C G/B Am7 G/B
And I saw my reflection in the snow-covered hills
C G/B Am7 Am7 - G/B
Till the landslide brung it down (Oh,)
 
C G/B Am7 G/B
Oh, mirror in the sky, what is love?
C G/B Am7 G/B
Can the child within my heart rise above?
C G/B Am7 G/B
Can I sail through the changin' ocean tides?
C G/B Am7 G/B C G/B Am7 G/B
Can I handle the seasons of my li - i - fe?
 
Am7 D7/F#

e|--------------------------------|--------------------------------|
B|------------1---------------1---|3-----------1---------------1---|
G|----0---------------0-----------|----2---------------2-----------|
D|--------2---------------2-------|--------0---------------0-------|
A|0---------------0---------------|--------------------------------|
E|--------------------------------|2---------------2---------------|
 
C G/B Am7 D7/F#
Mm hmm hmm hmm
 
G D7/F#

e|------------3-------------------|--------------------------------|
B|0-------------------0-----------|------------1-------------------|
G|----0---------------------------|2-------------------2-----------|
D|--------0---------------0-------|----0-------------------0-------|
A|--------------------------------|--------0-----------------------|
E|3---------------3---------------|2---------------2---------------|
 
Em

e|------------0-------------------|------------0-------------------|
B|0-------------------------------|0-------------------------------|
G|----0---------------------------|----0---------------------------|
D|--------2---------------2-------|--------2---------------2-------|
A|----------------2---------------|----------------2---------------|
E|0-------------------------------|0-------------------------------|
 
G D7/F# Em Em
Well, I've been afraid of changing 'cause I've
 
C G/B

e|------------3-------------------|------------3-------------------|
B|1-------------------------------|3-------------------------------|
G|----0---------------------------|----0---------------------------|
D|--------2---------------2-------|--------0---------------0-------|
A|3---------------3---------------|2---------------2---------------|
E|--------------------------------|--------------------------------|
 
Am7 D7/F#

e|------------3-------------------|--------------------------------|
B|1-------------------------------|3-----------1---------------1---|
G|----0---------------------------|----2---------------2-----------|
D|--------2---------------2-------|--------0---------------0-------|
A|0---------------0---------------|--------------------------------|
E|--------------------------------|2---------------2---------------|
 
C G/B Am7 D7/F#
Built my life around you
 
G D7/F# Em Em
But time makes you bolder, even children get older
C G/B Am7 Am7 - G/B
And I'm getting older too
 
[Solo]
(solo, 16 measures)

e|--------------------------------|--------------------------------|
B|------------------------0h--3---|(3 hold)------------------------|
G|----------------0h--2-----------|--------------------------------|
D|--------0---------------0-------|--------0---------------0-------|
A|3---------------3---------------|2---------------2---------------|
E|--------------------------------|--------------------------------|
 
e|--------------------------------|--------------------------------|
B|3//5------------3---------------|0-------------------------------|
G|--------------------------------|----------------2-------0-------|
D|--------0---------------0-------|--------0---------------0-------|
A|0---------------0---------------|2---------------2---------------|
E|--------------------------------|--------------------------------|
 
e|--------------------------------|--------------------------------|
B|--------------------------------|--------------------------------|
G|--------------------0---2-------|0-------------------------------|
D|--------0---------------0-------|--------0---------------0-------|
A|3---------------3---------------|2---------------2h--3-----------|
E|--------------------------------|--------------------------------|
 
e|----------------------------3---|--------------------2-------0---|
B|------------1-------------------|----3---------------------------|
G|--------------------0-----------|------------0-------------------|
D|--------0---------------0-------|--------0---------------0-------|
A|0---------------0---------------|2---------------2---------------|
E|--------------------------------|--------------------------------|
 
e|--------------------------------|--------------------------------|
B|------------------------0h--3---|(3 hold)------------------------|
G|----------------0h--2-----------|--------------------------------|
D|--------0---------------0-------|--------0---------------0-------|
A|3---------------3---------------|2---------------2---------------|
E|--------------------------------|--------------------------------|
 
e|--------------------------------|--------------------------------|
B|3//5------------3---------------|0-------------------------------|
G|--------------------------------|----------------2-------0-------|
D|--------0---------------0-------|--------0---------------0-------|
A|0---------------0---------------|2---------------2---------------|
E|--------------------------------|--------------------------------|
 
e|--------------------------------|--------------------------------|
B|------------------------1-------|0-------------------------------|
G|--------------------0-----------|----0---------------------------|
D|--------0---------------0-------|--------0---------------0h--2---|
A|3---------------3---------------|2---------------2---------------|
E|--------------------------------|--------------------------------|


e|----3---2---3---5---3---2---3---|2---0-------0-------------------|
B|--------------------------------|--------3-------3---1---0-------|
G|--------------------------------|----------------------------2---|
D|--------2---------------2-------|0-----------------------0-------|
A|0---------------0---------------|--------0-----------------------|
E|--------------------------------|----------------2---------------|
 
 
Well, I've been afraid of changing 'cause I've
Built my life around you
But time makes you bolder, even children get older
And I'm getting older too
Oh, I'm getting older too
 
Ah-ah, take my love, take it down
Ah-ah, Climb a mountain and turn around
And if you see my reflection in the snow-covered hills
Well, a landslide'll bring it down
C G/B Am7 G/B [pause]
And if you see my reflection in the snow-covered hills
C G/B Am7 G/B
Well, a landslide'll bring it down, oh-ohh
C G/B Am7.
The landslide'll bring it down.



************************************

| h Hammer-on
| / Slide up

************************************
Tunning: Standard (E A D G B e)
-------------------------------------------------------------------------------
Landslide – Fleetwood Mac
-------------------------------------------------------------------------------
Tabbed by: Mattkoepps
E-mail: mattkoepps@gmail.com
Tuning: Standard
Capo: 3rd Fret

[Intro]
e|---------------|---------------|---------------|---------------|
B|-------1-------|-------3-------|-------1-------|-------3-------|
G|---0-------0---|---0-------0---|---2-------2---|---0-------0---| (2x)
D|-----2-------2-|-----0-------0-|-----2-------2-|-----0-------0-|
A|-3-------3-----|-2-------2-----|-0-------0-----|-2-------2-----|
E|---------------|---------------|---------------|---------------|


[Verse 1]
e|---------------|---------------|---------------|---------------|
B|-------1-------|-------3-------|-------1-------|-------3-------|
G|---0-------0---|---0-------0---|---2-------2---|---0-------0---| (3x)
D|-----2-------2-|-----0-------0-|-----2-------2-|-----0-------0-|
A|-3-------3-----|-2-------2-----|-0-------0-----|-2-------2-----|
E|---------------|---------------|---------------|---------------|

e|---------------|---------------|---------------|-----------------|
B|-------1-------|-------3-------|-------1-------|-------1-------3-|
G|---0-------0---|---0-------0---|---2-------2---|---2-------0-----|
D|-----2-------2-|-----0-------0-|-----2-------2-|-----2-------0---|
A|-3-------3-----|-2-------2-----|-0-------0-----|-0-------2-------|
E|---------------|---------------|---------------|-----------------|

e|---------------|---------------|---------------|---------------|
B|-------1-------|-------3-------|-------1-------|-------3-------|
G|---0-------0---|---0-------0---|---2-------2---|---0-------0---| (4x)
D|-----2-------2-|-----0-------0-|-----2-------2-|-----0-------0-|
A|-3-------3-----|-2-------2-----|-0-------0-----|-2-------2-----|
E|---------------|---------------|---------------|---------------|


[Pre-Chorus]
e|---------------|---------------|---------------|---------------|
B|-------1-------|-------3-------|-------1-------|-------3-------|
G|---0-------0---|---0-------0---|---2-------2---|---0-------0---|
D|-----2-------2-|-----0-------0-|-----2-------2-|-----0-------0-|
A|-3-------3-----|-2-------2-----|-0-------0-----|-2-------2-----|
E|---------------|---------------|---------------|---------------|

e|---------------|---------------|---------------|---------------|
B|-------1-------|-------3-------|-------1-------|-------3-------|
G|---0-------0---|---0-------0---|---2-------2---|---2-------2---|
D|-----2-------2-|-----0-------0-|-----2-------2-|-----0-------0-|
A|-3-------3-----|-2-------2-----|-0-------0-----|---------------|
E|---------------|---------------|---------------|-2-------2-----|


[Chorus]
e|---------------|---------------|---------------|---------------|
B|-------0-------|-------1-------|-------0-------|-------0-------|
G|---0-------0---|---2-------2---|---0-------0---|---0-------0---|
D|-----0-------0-|-----0-------0-|-----2-------2-|-----2-------2-|
A|---------------|---------------|---------2-----|---------2-----|
E|-3-------3-----|-2-------2-----|-0-------------|-0-------------|
e|---------------|---------------|---------------|---------------|
B|-------1-------|-------3-------|-------1-------|-------1-------|
G|---0-------0---|---0-------0---|---0-------0---|---0-------0---|
D|-----2-------2-|-----0-------0-|-----2-------2-|-----2-------2-|
A|-3-------3-----|-2-------2-----|-0-------0-----|---------------|
E|---------------|---------------|---------------|-2-------2-----|

e|---------------|---------------|---------------|---------------|
B|-------0-------|-------1-------|-------0-------|-------0-------|
G|---0-------0---|---2-------2---|---0-------0---|---0-------0---|
D|-----0-------0-|-----0-------0-|-----2-------2-|-----2-------2-|
A|---------------|---------------|---------2-----|---------2-----|
E|-3-------3-----|-2-------2-----|-0-------------|-0-------------|

e|---------------|---------------|---------------|-----------------|
B|-------1-------|-------3-------|-------1-------|-------1-------3-|
G|---0-------0---|---0-------0---|---2-------2---|---2-------0-----|
D|-----2-------2-|-----0-------0-|-----2-------2-|-----2-------0---|
A|-3-------3-----|-2-------2-----|-0-------0-----|-0-------2-------|
E|---------------|---------------|---------------|-----------------|


Solo (Guitar 1)
e|---------------|---------------|---------------|---------------|
B|-------1-------|-------3-------|-------1-------|-------3-------|
G|---0-------0---|---0-------0---|---2-------2---|---0-------0---| (3x)
D|-----2-------2-|-----0-------0-|-----2-------2-|-----0-------0-|
A|-3-------3-----|-2-------2-----|-0-------0-----|-2-------2-----|
E|---------------|---------------|---------------|---------------|

e|---------------|---------------|---------------|---------------|
B|-------1-------|-------3-------|-------1-------|-------3-------|
G|---0-------0---|---0-------0---|---2-------2---|---2-------2---|
D|-----2-------2-|-----0-------0-|-----2-------2-|-----0-------0-|
A|-3-------3-----|-2-------2-----|-0-------0-----|---------------|
E|---------------|---------------|---------------|-2-------2-----|


Solo (Guitar 2)
e|---5-7-7/10~~-|-10/12--10-7p5-------|-3/5-3-----------|---|
B|-8------------|---------------8-8~~-|-------0h1-3-3~~-|~~~|
G|--------------|---------------------|-----------------|---|
D|--------------|---------------------|-----------------|---|
A|--------------|---------------------|-----------------|---|
E|--------------|---------------------|-----------------|---|

e|---5-7-7/10~~-|-10/12\10-5/7-7\5-3-|-------8-7----------|
B|-8------------|--------------------|-----8-----8--------|
G|--------------|--------------------|-7b9----------------|
D|--------------|--------------------|-------------9-9-10-|
A|--------------|--------------------|--------------------|
E|--------------|--------------------|--------------------|

e|----------------------------------------|
B|---8-7-8-8/10-8-7-8-7---7---------------|
G|-7--------------------9---9-7-----------|
D|------------------------------10-9-7/10-|
A|----------------------------------------|
E|----------------------------------------|




[Chorus]
e|---------------|---------------|---------------|---------------|
B|-------0-------|-------1-------|-------0-------|-------0-------|
G|---0-------0---|---2-------2---|---0-------0---|---0-------0---|
D|-----0-------0-|-----0-------0-|-----2-------2-|-----2-------2-|
A|---------------|---------------|---------2-----|---------2-----|
E|-3-------3-----|-2-------2-----|-0-------------|-0-------------|


e|---------------|---------------|---------------|---------------|
B|-------1-------|-------3-------|-------1-------|-------1-------|
G|---0-------0---|---0-------0---|---0-------0---|---0-------0---|
D|-----2-------2-|-----0-------0-|-----2-------2-|-----2-------2-|
A|-3-------3-----|-2-------2-----|-0-------0-----|---------------|
E|---------------|---------------|---------------|-2-------2-----|

e|---------------|---------------|---------------|---------------|
B|-------0-------|-------1-------|-------0-------|-------0-------|
G|---0-------0---|---2-------2---|---0-------0---|---0-------0---|
D|-----0-------0-|-----0-------0-|-----2-------2-|-----2-------2-|
A|---------------|---------------|---------2-----|---------2-----|
E|-3-------3-----|-2-------2-----|-0-------------|-0-------------|

e|---------------|---------------|---------------|---------------|
B|-------1-------|-------3-------|-------1-------|-------3-------|
G|---0-------0---|---0-------0---|---2-------2---|---0-------0---| (2x)
D|-----2-------2-|-----0-------0-|-----2-------2-|-----0-------0-|
A|-3-------3-----|-2-------2-----|-0-------0-----|-2-------2-----|
E|---------------|---------------|---------------|---------------|


[Verse]
e|---------------|---------------|---------------|---------------|
B|-------1-------|-------3-------|-------1-------|-------3-------|
G|---0-------0---|---0-------0---|---2-------2---|---0-------0---| (4x)
D|-----2-------2-|-----0-------0-|-----2-------2-|-----0-------0-|
A|-3-------3-----|-2-------2-----|-0-------0-----|-2-------2-----|
E|---------------|---------------|---------------|---------------|

e|---------------|---------------|---------------|-3~~-|
B|-------1-------|-------3-------|-------1-------|-3~~-|
G|---0-------0---|---0-------0---|---2-------2---|-----|
D|-----2-------2-|-----0-------0-|-----2-------2-|-----|
A|-3-------3-----|-2-------2-----|-0-------0-----|-2~~-|
E|---------------|---------------|---------------|-----|


[Outro]
e|---------------|---------------|---------------|---------------|
B|-------1-------|-------3-------|-------1-------|-------3-------|
G|---0-------0---|---0-------0---|---2-------2---|---0-------0---|
D|-----2-------2-|-----0-------0-|-----2-------2-|-----0-------0-|
A|-3-------3-----|-2-------2-----|-0-------0-----|-2-------2-----|
E|---------------|---------------|---------------|---------------|

e|---------------|---------------|-----|
B|-------1-------|-------3-------|-1~~-|
G|---0-------0---|---0-------0---|-2~~-|
D|-----2-------2-|-----0-------0-|-----|
A|-3-------3-----|-2-------2-----|-0~~-|
E|---------------|---------------|-----|



************************************

| p Pull-off
| / Slide up
| ~ Vibrato
| h Hammer-on
| \ Slide down
| b Bend

************************************
Song info
Landslide
Fleetwood Mac
2001
  • Pop
  • Rock
  • Classic Rock
  • Pop Rock
  • Soft Rock
Similar songs
Ohio - Crosby, Stills, Nash & Young
No Rain - Blind Melon
Waterloo Sunset - The Kinks

Hi! Hope you enjoy backing track experience.
If you want to help us in the development of the project, feel free to donate!