Need Your Love So Bad - Fleetwood Mac
00:00 / 00:00
Tabs and lyrics
Tunning: Nashville (E A D G B E)
I've seen one or two requests for this so I thought I'd have a go.
This is how I think it goes. I'm no lead guitarist so the positioning
of the solo may not be to everyone's liking, but it gives you an idea
so you can then choose where abouts up the neck you want to play it.
Any comments/corrections most welcome.
Regards, Malc
Need Your Love So Bad by Peter Green's Fleetwood Mac
Tuning:
Standard, EADGBE.

[Chords]
Ebdim xx1212

[Intro]
A A7
E|-------------|--------------------------------------|
B|---------10--|--14b-14--------10h12----10-----------|
G|--9--11------|-------------11-------11-----11-----9/|
D|-------------|--------------------------------------|
A|-------------|--------------------------------------|
E|-------------|--------------------------------------|

D Ebdim
E|--------------------------------------------------------------|
B|----10--12----10-------10-----15b--14--10----10--12b-p10------|
G|/11--------11-------11-----11-------------11--------------11--|
D|--------------------------------------------------------------|
A|--------------------------------------------------------------|
E|--------------------------------------------------------------|

A F#m Bm E
E|-----------14-------------------------------------------------|
B|--14---------------12b-p10--12----------10h12----10--12b-p10--|
G|-------------------------------------11-------11--------------|
D|--------------------------------------------------------------|
A|--------------------------------------------------------------|
E|--------------------------------------------------------------|

A D7 A E7
E|-----------5-8--------10-11-12\-----------------------|
B|-----------7-10-------12-13-14\-----------------------|
G|------------------------------------------------------|
D|------------------------------------------------------|
A|------------------------------------------------------|
E|------------------------------------------------------|

A A7
I need someone's hand, to lead me through the night
D Ebdim
I need someone's arms, to hold and squeeze me tight
A F#m Bm E
Now when the night begins, I'm at an end
A D7 A E7
Because I need your love so bad.

A A7
I need some lips, to feel next to mine
D Ebdim
I need someone to stand up, and tell me when I'm lyin'
A F#m Bm E
And when the lights are low, and it's time to go
A D7 A A7
That's when I need your love so bad.

D Ebdim
So why don't you give it up, and bring it home to me
A A7
Or write it on a piece of paper baby, so it can be read to me
B7
Tell me that you love me, and stop driving me mad
E F E E7
Oh because I, I need your love so bad.

A A7
I need your soft voice, to talk to me at night
D Ebdim
I don't want you to worry baby, I know we can make everything alright
A F#m Bm E
Listen to my plea, baby, bring it to me
A D7 A E7
Because I need your love so bad.

Repeat [Intro] and fade.


************************************

| h Hammer-on
| p Pull-off
| b Bend
| / Slide up
| \ Slide down

************************************
Tunning: Nashville (E A D G B E)
-------------------------------------------------------------------------------
Need Your Love So Bad - Peter Green's Fleetwood Mac
-------------------------------------------------------------------------------
Tabbed by: Matthew Stubbs
E-mail: matxt@hotmail.co.uk

Tuning: Standard - EADGBE

Key:
b - bend
h - hammer-on
p - pull-off
/ - slide up
\ - slide down

Intro:

E|----------------------------------------------------------------------------------------------------|
B|-------10-12b14r12b14------10h12---10-----------------10-12----10--------10----12b14-13-10------10--|
G|-9--11-------------------11------11---11----9--10/11--------11--------11----10---------------11-----|
D|----------------------------------------------------------------------------------------------------|
A|----------------------------------------------------------------------------------------------------|
E|----------------------------------------------------------------------------------------------------|

E|---------------------------12b14---------------------------------------------------8---10-11-12\----|
B|-12b14r12p10-------12b14-----------12b14r12-10-12-----10h12----10-12b14b12-10---10-10--12-13-14\----|
G|-------------11------------------------------------11-------11------------------11------------------|
D|----------------------------------------------------------------------------------------------------|
A|----------------------------------------------------------------------------------------------------|
E|----------------------------------------------------------------------------------------------------|

Need someone's hand to lead me through the night
I need someone's arms to hold and squeeze me tight
Now, when the night begins, I'm at an end
Because I need your love so bad

I need some lips to feel next to mine
Need someone to stand up, and tell me when I'm lyin'
And when the lights are low, and it's time to go
That's when I need your love so bad

E|--5----|
B|--7-8--|
G|-------|

So why don't you give it up, and bring it home to me

E|--------------|
B|--------------|
G|--7b9-7p5-----|
D|----------7-7-|
A|--------------|

Or write it on a piece of paper, woman, so it can be read to me

E|--5----|
B|--7-8--|
G|-------|

Tell me that you love me, and stop drivin' me mad
Whoa, because I, I need your love so bad
Need a soft voice, just to talk to me at night
Don't want you to worry, baby
I know we can make everything alright

E|-----------|
B|-----------|
G|--7b9-7p5--|
D|-----------|

Listen to my plea, baby, come on bring it to me
Because I need, your love so bad

Solo 1:

E|--------------------------------12b14-12------------------------------------12b14-12-10-------------|
B|----12b14r12p10----12b14-----10----------10------10----12b14-13--10-10------------------13-10-10----|
G|--11-------------11---------------------------11----11-----------------11-------------------------11|
D|----------------------------------------------------------------------------------------------------|
A|----------------------------------------------------------------------------------------------------|
E|----------------------------------------------------------------------------------------------------|

E|-------10-12---------------------------------12b14--------------------------------10-12-------------|
B|-12b14-------12b14r12-10------10----12b14------------12b14b12-p10-12-----10-12b14-------12b14r12-10-|
G|---------------------------11----11-----------------------------------11----------------------------|
D|----------------------------------------------------------------------------------------------------|
A|----------------------------------------------------------------------------------------------------|
E|----------------------------------------------------------------------------------------------------|

E|-5--5--------------------|
B|----7-------------5-7-5--|
G|------5-4---------6-7-6--|
D|----------7---4-7--------|
A|-------------------------|
E|-------------------------|

Solo 2 (Extra in album version of the song):

E|-----------10-12------------------------------------------------------------------------------------|
B|-----12b14-------12b14-------------10h12------10-10-------------13-15-15/17-15p13-------------------|
G|--11----------------------------11----------11---------------14-------------------14-14----------14-|
D|----------------------------------------------------------------------------------------------------|
A|----------------------------------------------------------------------------------------------------|
E|----------------------------------------------------------------------------------------------------|

E|--15-14-12--------------------------------------------------------------------12-14-----------------|
B|-----------15-15b17r15-13----------------13p12--------------12b14r12-10--------------12b14r12-10-12-|
G|--------------------------14-14----11-14--------14--11---11-----------------------------------------|
D|----------------------------------------------------------------------------------------------------|
A|----------------------------------------------------------------------------------------------------|
E|----------------------------------------------------------------------------------------------------|

E|---------------------------10-12------------------5-----------------5-------|
B|--15b17-15p13--------12b14-------12b14r12-10------7-----------------5-7-8---|
G|-------------14---11--------------------------------5-4---------------------|
D|--------------------------------------------------------7--5----------------|
A|-------------------------------------------------------------7-3/4----------|
E|----------------------------------------------------------------------------|

So why won't you give it up, and bring it it home to me?
I'll write it on a piece of paper baby, so it can be read to me
Tell me that you love me, and stop driving me mad
Whoa, because I, I need your love so bad

Need a soft voice, to talk to me at night

E|--5------|
B|--5-7-8--|
G|---------|

I don't want you to worry baby
I know we can make everything alright

E|---------------|
B|---------------|
G|--13b15-13p10--|
D|---------------|

Listen to me plea baby, bring it to me
Because I need your love so bad
Because I need,
Yes i need your love so bad

Outro (again in album version):

E|---------------------------------|
B|---8----8sb-------------5---5----|
G|-9----9----9---7b8r7p5--6-7-6-6--|
D|------------------------------7--|
A|---------------------------------|
E|---------------------------------|

Thanks :)
Song info
Need Your Love So Bad
Fleetwood Mac
2001
  • Blues
  • Pop Rock
Alternative tracks
Similar songs
Constant Craving - K.D. Lang
Feelings - Morris Albert
Scar Tissue - Red Hot Chili Peppers

Hi! Hope you enjoy backing track experience.
If you want to help us in the development of the project, feel free to donate!